Guitaretab - guitar tabs
Song name
# A B C D E F G H I J K L M N O P Q R S T U V W X Y Z

Fun Lovin Criminals - 10th Street tab

Intro/Verse 12X

1st Guitar
e|------------------|
B|------------------|
G|------------------|
D|------------------|
A|-77-7757-5-57-0/7-|
E|------------------|

2nd Guitar
e|------------------|
B|------------------|
G|-9----9----7----7-|
D|-9----9----7----7-|
A|-7----7----5----5-|
E|------------------|

Chorus             

Heavy Distortion   
e|----------------|
B|----------------|
G|-99-999--77-555-| 4X
D|-99-999--77-555-|
A|-77-777--55-777-|
E|----------------|
[ Tab from: http://www.guitaretab.com/f/fun-lovin-criminals/180991.html ]
e|----------------|----------------|
B|----------------|----------------|
G|----------------|----------------|
D|-7----7----7----|---5------------|
A|-7----7----7----|---5------------|
E|-5----5----5----|---3------------|

Verse 10X

Chorus - Same as first time but after that you play this:
e|----------------|
B|----------------|
G|-99-999--77-555-| 2X
D|-99-999--77-555-|
A|-77-777--55-777-|
E|----------------|

e|----------------|----------------|
B|----------------|----------------|
G|----------------|----------------|
D|-7----7----7----|---5------------|
A|-7----7----7----|---5------------|
E|-5----5----5----|---3------------|
Related for 10th Street tab
10th Street chords by Fun Lovin Criminals