Song name
# A B C D E F G H I J K L M N O P Q R S T U V W X Y Z

Fun Lovin Criminals - Big Night Out tab

This is a brilliant song, surprised no one has tabbed it yet.
Written by Fun Lovin Criminals from the album 100% Columbian.

Bass Tab for verse:

F#
---------------------------------|
---------------------------------|
--4---4---5---5---4---4---5---5--|
----2-------3-------2-------3----|

Its this all throughout the verse.


Guitar Tab for Chorus:

F#

---------------------------------------|
---------------------------------------|
-------------------------------4--5--6-|
-4--4--4----4--5--6--6-----------------|   (Repeat)
-------------------------4-------------|
---------------------------------------|


Bass Tab For Chorus:

F#

-----------------------------|
-----------------------------|
-------------------------4---|  (Repeat)
-2--2--2----2--3--4--4-------|


Guitar Tab for middle ("Gotta have the love in this F**ked up world" bit)

Played with a Slide

  C#       G#       F#       C#
------------------------------------|
------------------------------------|
------------------------------------|
--4/11-----11/6-----6/4-----4/11----|  (Repeat)
--4/11-----11/6-----6/4-----4/11----|
------------------------------------|

The outro is the the same chords as above.

Enjoy, Tim.
Tap to rate this tab
 
# A B C D E F G H I J K L M N O P Q R S T U V W X Y Z