Song name
# A B C D E F G H I J K L M N O P Q R S T U V W X Y Z

Fun Lovin Criminals - Scooby Snacks tab

Fun Lovin' Criminals
Scooby Snacks
Tabbed by lamenick

Love this song and the tabs here go a long way to making it sound great but
the main riff always sounded 'off'. I like this version of it much better.
Also included is an attempt on the solo, it's far from perfect but it should
be more than enough to get you started.

'The Riff', heavy vibrato
|--10~~~---10--8--|
|--10~~~---10--8--|
|--10~~~---10--9--|
|-----------------|
|-----------------|
|-----------------|

Solo
|-----------------------------------|
|--10~~-10-11-13-11-10h11p10----10--|
|--10~~----------------------12-----|
|-----------------------------------|
|-----------------------------------|
|-----------------------------------|

|-----------------------------------------------------|
|----------------------------------10-11-13p11----10--|
|--9-10-12-10-9h10p9----9----------------------12-----|
|--------------------12---12p10h12--------------------|
|-----------------------------------------------------|
|-----------------------------------------------------|
Tap to rate this tab
# A B C D E F G H I J K L M N O P Q R S T U V W X Y Z