Song name
# A B C D E F G H I J K L M N O P Q R S T U V W X Y Z

Fun Lovin Criminals - We Are All Very Worried About You tab

We are all very worried about you

by Fun Lovin Criminals
from the album '100% Columbian'

transcribed by Christian Reindel (creindel@gmx.de)
any questions or corrections- e-mail me

Tune down 1/2 step

    Play this the whole song

     Am    Fm     G      D
Eb:|-0-----0------0------2-----|
Bb:|-1-----1------3------3-----|
Gb:|-2-----2------0------2-----|
Db:|-2-----3------0------0-----|
Ab:|-0-----3------2------------|
Eb:|-------1------3------------|

except the little chorus-part-

We are all very worried about you

     C
Eb:|-0-------|
Bb:|-1-------|
Gb:|-0-------|
Db:|-2-------|
Ab:|-3-------|
Eb:|---------|
Tap to rate this tab
# A B C D E F G H I J K L M N O P Q R S T U V W X Y Z