Song name
# A B C D E F G H I J K L M N O P Q R S T U V W X Y Z

Fun People - Pilar tab

Intro:

E|------------------------------------|
B|------------------------------------|
G|-5-5-4-4---------5-5-4-4------------|
D|-5-5-4-4-7-7-5-5-5-5-4-4-7-7-7/5555-|
A|-3-3-2-2-7-7-5-5-3-3-2-2-7-7-7/5555-|
E|---------5-5-3-3---------5-5-5/3333-|

"Te fui a buscar, te llame y no estabas..."

E|----------------------------------|
B|----------------------------------|
G|-5-5-4-4---------5-5-4-4----------|
D|-5-5-4-4-7-7-5-5-5-5-4-4-7-7/5555-| [x2]
A|-3-3-2-2-7-7-5-5-3-3-2-2-7-7/5555-|
E|---------5-5-3-3---------5-5/3333-|

"oh oh oh oh"

E|-----------------|
B|-----------------|
G|-5-5-5-5---------|
D|-5-5-5-5-5-5-5-5-|
A|-3-3-3-3-5-5-5-5-|
E|---------3-3-3-3-|

"Que me queda dejame ser niņo..."

E|----------------------------------|
B|----------------------------------|
G|-5-5-4-4---------5-5-4-4----------|
D|-5-5-4-4-7-7-5-5-5-5-4-4-7-7/5555-| [x2]
A|-3-3-2-2-7-7-5-5-3-3-2-2-7-7/5555-|
E|---------5-5-3-3---------5-5/3333-|

"oh oh oh oh"
E|-----------------|
B|-----------------|
G|-5-5-5-5---------|
D|-5-5-5-5-5-5-5-5-|
A|-3-3-3-3-5-5-5-5-|
E|---------3-3-3-3-|

"Me acuerdo hacia frio..."

E|-----------------------------------|
B|-----------------------------------|
G|-5-5-4-4----------5-5-4-4----------|
D|-5-5-4-4-7-7-5-5--5-5-4-4-7-7/5555-| [x2]
A|-3-3-2-2-7-7-5-5--3-3-2-2-7-7/5555-|
E|---------5-5-3-3----------5-5/3333-|

"oh oh oh oh"
E|-----------------|
B|-----------------|
G|-5-5-5-5---------|
D|-5-5-5-5-5-5-5-5-|
A|-3-3-3-3-5-5-5-5-|
E|---------3-3-3-3-|

Bridge [puente]:

E|----------------------------------------------------|
B|----------------------------------------------------|
G|------------------------------5-5-5-5-5-5-5-5-5-5-5-|
D|-5-5-5-5-5-5-5-5-5-5-5--------5-5-5-5-5-5-5-5-5-5-5-|
A|-5-5-5-5-5-5-5-5-5-5-5----2-3-3-3-3-3-3-3-3-3-3-3-3-| [x2]
E|-3-3-3-3-3-3-3-3-3-3-3-3-5--------------------------|
   *********************        *********************

"Encuentro consuelo cuando oigo un grito..."

E|-------------------------------------------------|
B|-------------------------------------------------|
G|-------------------------5-5-5-5-5-5-5-5-5-5-5-5-|
D|-5-5-5-5-5-5-5-5-5-5-5-5-5-5-5-5-5-5-5-5-5-5-5-5-| [x4]
A|-5-5-5-5-5-5-5-5-5-5-5-5-3-3-3-3-3-3-3-3-3-3-3-3-|
E|-3-3-3-3-3-3-3-3-3-3-3-3-------------------------|

"...pilar, pilar, pilar, pilar..."

E|-----------------------------------------------------------------|
B|-----------------------------------------------------------------|
G|---------------------------------5-5-5-5-5-5-5-5-5-5-5-5-5-5-5-5-|
D|-5-5-5-5-5-5-5-5-5-5-5-5-5-5-5-5-5-5-5-5-5-5-5-5-5-5-5-5-5-5-5-5-| [x2]
A|-5-5-5-5-5-5-5-5-5-5-5-5-5-5-5-5-3-3-3-3-3-3-3-3-3-3-3-3-3-3-3-3-|
E|-3-3-3-3-3-3-3-3-3-3-3-3-3-3-3-3---------------------------------|
   *****   *****   *****   *****   *****   *****   *****   *****

"Niņo una vez mas..."

E|---------|
B|---------|
G|---------|
D|------5~-|
A|------5~-|
E|------3~-|

* = palm mute
~ = dejar sonando

Espero que les sirva gente
cualquier cosa les dejo mi e-mail: lucagd.stalker@gmail.com
saludos
Tap to rate this tab
# A B C D E F G H I J K L M N O P Q R S T U V W X Y Z