Fun - Walking The Dog tab

---2----3--2--0----2--0---|
---3----3--3--2----3--2---|
---2----2--2--2----2--2---|
---0----0--0--2----0--2---|
--------------0-------0---|
--------------------------|


---2----3--2--0----2---|
---3----3--3--2----3---|
---2----2--2--2----2---|
---0----0--0--2----0---|
--------------0--------|
-----------------------|

---2-2----2-2-3-3--2-2--0-0----0-0--2-2--0-0---|
---3-3----3-3-3-3--3-3--2-2----2-2--3-3--2-2---|
---2-2----2-2-2-2--2-2--2-2----2-2--2-2--2-2---|
---0-0----0-0-0-0--0-0--2-2----2-2--0-0--2-2---|
------------------------0-0----0-0-------0-0---|
-----------------------------------------------|

---2-2----2-2-3-3--2-2--0-0----0-0--2---|
---3-3----3-3-3-3--3-3--2-2----2-2--3---|
---2-2----2-2-2-2--2-2--2-2----2-2--2---|
---0-0----0-0-0-0--0-0--2-2----2-2--0---|
------------------------0-0----0-0------|
----------------------------------------|
Tap to rate this tab
 
# A B C D E F G H I J K L M N O P Q R S T U V W X Y Z