Song name
# A B C D E F G H I J K L M N O P Q R S T U V W X Y Z

Fun - We Are Young tab

-------------------------------------------------------------------------------
                             we are young - Fun
-------------------------------------------------------------------------------
Tabbed by:Fall0ut007
Email:fall0ut007fotw@gmail.com
( / slide up)      tabbed this song by ear
Tuning:standard

e|-----1------------------------1----0-----0---------------------------------|
B|--------1----1------------------------3-----3------------------------------|
G|----------2-----2----------------------------------------------------------|
D|---------------------------------------------------------------------------|
A|---------------------------------------------------------------------------|
E|---------------------------------------------------------------------------|

e|--1-1-1-1-1---3---5-----6-6--------6-6----5--6--5----3---------------------|
B|---------------------3------3-3-3------------------------------------------|
G|---------------------------------------------------------------------------|
D|---------------------------------------------------------------------------|
A|---------------------------------------------------------------------------|
E|---------------------------------------------------------------------------|
                                     (2X)




e|---------------------------------------------------------------------------|
B|------------------3---1---------------------3---1--------------------------|
G|---------5---2------------3---2-----5---2-----------3---2------------------|
D|---3-3---------------------------------------------------------------------|
A|---------------------------------------------------------------------------|
E|---------------------------------------------------------------------------|

e|---------------------------------------------------------------------------|
B|---------------------1-----------------------------------------------------|
G|---------0---2----------------3-2-3-2-3-2-3-2---0--2--3--------------------|
D|---3-3-------------3---3---------------------------------------------------|
A|---------------------------------------------------------------------------|
E|---------------------------------------------------------------------------|

e|---------------------------------------------------------------------------|
B|---------------------------------------------------------------------------|
G|----------3-3-----------3-5-3----3-3-3--2--0-------------------------------|
D|-------3--------------3----------------------3------0---3--3--5--3---------|
A|-5-5-5----------5-5-5--------------------------3--3------------------------|
E|---------------------------------------------------------------------------|




e|-----1------------------------1----0-----0---------------------------------|
B|--------1----1------------------------3-----3------------------------------|
G|----------2-----2----------------------------------------------------------|
D|---------------------------------------------------------------------------|
A|---------------------------------------------------------------------------|
E|---------------------------------------------------------------------------|

e|--1-1-1-1-1---3---5-----6-6--------6-6----5--6--5----3---------------------|
B|---------------------3------3-3-3------------------------------------------|
G|---------------------------------------------------------------------------|
D|---------------------------------------------------------------------------|
A|---------------------------------------------------------------------------|
E|---------------------------------------------------------------------------|
                                    (2X)



e|---------------------------------------------------------------------------|
B|-6--6--6----6--8--10----3-----5-6--6--6----6--8--1-------------------------|
G|---------------------------------------------------------------------------|
D|---------------------------------------------------------------------------|
A|---------------------------------------------------------------------------|
E|---------------------------------------------------------------------------|

                                    (4X)




e|-----1------------------------1----0-----0---------------------------------|
B|--------1----1------------------------3-----3------------------------------|
G|----------2-----2----------------------------------------------------------|
D|---------------------------------------------------------------------------|
A|---------------------------------------------------------------------------|
E|---------------------------------------------------------------------------|

e|--1-1-1-1-1---3---5-----6-6--------6-6----5--6--5----3---------------------|
B|---------------------3------3-3-3------------------------------------------|
G|---------------------------------------------------------------------------|
D|---------------------------------------------------------------------------|
A|---------------------------------------------------------------------------|
E|---------------------------------------------------------------------------|
                                     (2X)


e|---------------------------------------------------------------------------|
B|---------------------------------------------------------------------------|
G|--3--3--2--0---------------------2-2--0------------------------------------|
D|------------------------2--2------------3---------------2--2---3-----------|
A|---------------5-----5--------3------------3/5----5-5-5--------------------|
E|---------------------------------------------------------------------------|
Tap to rate this tab
# A B C D E F G H I J K L M N O P Q R S T U V W X Y Z