Song name
# A B C D E F G H I J K L M N O P Q R S T U V W X Y Z

Fun - Somebody That I Used To Know tab

--------------------|
---5----------------|
---6---4------------|
---6---4------------| ALL THE WAY THROUGH THE VERSE. USE SLIDE ON THE A STRING.
-4-4/2-2------------|
--------------------|


----------------|
-5--------------|
-6-4-6----------|
-6-4-7-9--------|  ALL THROUGH THE CHORUS.
-4-2-7-9--------|
-----5-7--------|

THATS PRETTY MUCH IT ENJOY :)
Tap to rate this tab
 
# A B C D E F G H I J K L M N O P Q R S T U V W X Y Z