Song name
# A B C D E F G H I J K L M N O P Q R S T U V W X Y Z

Fun - Stars tab

e|--------------------------------------------------------------------------|
B|--------------------------------------------------------------------------|
G|-------------------10h12b-10-10------------------------------10--12--10---|
D|----------10h12-10----------------------------------------12--------------|
A|-10h12-10-------------------------10h12-10---10/-12-\-10------------------|
E|---------------------------------------------8-/-10-\-8-------------------|


e|-------------------------------------------------------------|
B|-----------18--17------15----13------------------------------|
G|--17b---17---------17-----------15p14h15p14------------------|
D|-------------------------------------------------------------|
A|-------------------------------------------------------------|
E|-------------------------------------------------------------|


e|-----------------------------------------------------------------------|
B|-----------------------------------------------------------------------|
G|--15-14-12---------------15-14-12-----14-15-15h17p15-14----------------|
D|-----------15-14-12--15------------15----------------------------------|
A|-----------------------------------------------------------------------|
E|-----------------------------------------------------------------------|

e|-------------------------------------------|
B|-------------------------------------------|
G|-------------------------------------------|
D|--15-14-12---------------------------------|
A|-----------15-14-12--15--------------------|X2
E|-------------------------------------------|
Tap to rate this tab
# A B C D E F G H I J K L M N O P Q R S T U V W X Y Z