Song name
# A B C D E F G H I J K L M N O P Q R S T U V W X Y Z

Fun - Some Nights tab

e|---------------------------------------------------------------------------|
B|---------------------------------------------------------------------------|
G|----------02220-------------220--------------------------------------------|
D|--------2--------2----------------20-------0-------------------------------|
A|---333---------------3----------------3------------------------------------|
E|---------------------------------------------------------------------------|

e|---------------------------------------------------------------------------|
B|---------------------------------------------------------------------------|
G|--------------02220--------------220---------------------------------------|
D|--------2-------------2---------------20----0------------------------------|
A|-333------------------------3-------------3--------------------------------|
E|---------------------------------------------------------------------------|

e|---------------------------------------------------------------------------|
B|---------------------------------------------------------------------------|
G|---------0220-----------------0220-------------0220------------------------|
D|--2----------------------2------------------2--------32203-----------------|
A|--------------------3--------------------3---------------------------------|
E|---------------------------------------------------------------------------|

e|---------------------------------------------------------------------------|
B|---------------------------------------------------------------------------|
G|------220-----------------220----------------------------------------------|
D|-20---------20--------------------20---------------------------------------|
A|--------------------3--------------------3----------00---------------------|
E|---------------------------------------------------------------------------|

Tap to rate this tab
 
# A B C D E F G H I J K L M N O P Q R S T U V W X Y Z