Song name
# A B C D E F G H I J K L M N O P Q R S T U V W X Y Z

Fun - We Are Young Acoustic tab

-----------------------------------------------------------------------------
                             We are young(acoustic version) - Fun
-----------------------------------------------------------------------------

Tabbed by: LennonsDisciple - 9/3/13 - The most accurate asian tabber as voted by Playboy magazine.
Check me LennonsDisciple on youtube
Email: nhanngo123@gmail.com for any questions.

Tuning: Standard

There are lots of correct chords already submitted. So i am only doing the piano part..

I saw  Fun's acoustic performance on youtube and this is the piano bit which starts at 
"and I know I gave it to you months ago....I know you're trying to forget..."



[F]
Give me a second I
I need to get my story straight

  [Dm]
My friends are in the bathroom
getting higher than the empire state

 [Gm]
my lover she's waiting for me
just across the bar

              Bb
My seats been taken by some sunglasses
C
asking 'bout a scar




   [F]   I know I gave it to you    months ago

E||--13----------13----------13------|--13----------13----------13------|
B||----------13----------13------13--|----------13----------13------13--|
G||------14----------14--------------|------14----------14--------------|
D||----------------------------------|----------------------------------|
A||----------------------------------|----------------------------------|
E||----------------------------------|----------------------------------|



  [Dm]
   I know you're trying to forget
--13----------13----------13------|--13----------13----------13------|
----------15----------15------15--|----------15----------15------15--|
------14----------14--------------|------14----------14--------------|
----------------------------------|----------------------------------|
----------------------------------|----------------------------------|
----------------------------------|----------------------------------|


  [G]
 but between the drinks and subtle things  the holes in my apologies
--15----------15----------15------|--15----------15----------15------|
----------15----------15------15--|----------15----------15------15--|
------15----------15--------------|------15----------15--------------|
----------------------------------|----------------------------------|
----------------------------------|----------------------------------|
----------------------------------|----------------------------------|


 [Bb]                                 [C]
 you know I'm trying hard to take it  back
--13----------13----------13------|----12----------------||
----------15----------15------15--|----13----------------||
------15----------15--------------|----12----------------||
----------------------------------|----------------------||
----------------------------------|----------------------||
----------------------------------|----------------------||
Tap to rate this tab
 
# A B C D E F G H I J K L M N O P Q R S T U V W X Y Z