Song name
# A B C D E F G H I J K L M N O P Q R S T U V W X Y Z

Fun - Some Nights tab

Couldn't find a solid electric guitar tab on here, so here's my best shot.  Please 
add corrections in the comments, and I'll make the changes.  Cheers!

0:00-0:56
Rest

0:57-1:02 2 fills
e|-------------|-----------------|
B|----5-8~-----|----5-----8-8^r~-|
G|--7----------|--7---7-5--------|
D|-------------|-----------------|
A|-------------|-----------------|
E|-------------|-----------------|

1:03-1:30
Rest

1:31 3X              4th time mute over 12th fret
e|-X---X---X-X-X-X-|-12*-12*-12*-12*-12*-12*-12*-12*-|
B|-X-r-X-r-X-X-X-X-|-12*-12*-12*-12*-12*-12*-12*-12*-|
G|-X-e-X-e-X-X-X-X-|-12*-12*-12*-12*-12*-12*-12*-12*-|
D|-X-s-X-s-X-X-X-X-|-12*-12*-12*-12*-12*-12*-12*-12*-|
A|-X-t-X-t-X-X-X-X-|-12*-12*-12*-12*-12*-12*-12*-12*-|
E|-X---X---X-X-X-X-|-12*-12*-12*-12*-12*-12*-12*-12*-|

1:40 3X              4th time mute over 12th fret
e|-X---X---X-X-X-X-|-12*-12*-12*-12*-12*-12*-12*-12*-|
B|-X-r-X-r-X-X-X-X-|-12*-12*-12*-12*-12*-12*-12*-12*-|
G|-X-e-X-e-X-X-X-X-|-12*-12*-12*-12*-12*-12*-12*-12*-|
D|-X-s-X-s-X-X-X-X-|-12*-12*-12*-12*-12*-12*-12*-12*-|
A|-X-t-X-t-X-X-X-X-|-12*-12*-12*-12*-12*-12*-12*-12*-|
E|-X---X---X-X-X-X-|-12*-12*-12*-12*-12*-12*-12*-12*-|


1:49 6x (Could do as pull-offs as well)
e|-13-8-12-8-10-8-12-8-10-8--|
B|---------------------------|
G|---------------------------|
D|---------------------------|
A|---------------------------|
E|---------------------------|

2:03-2:34
Rest

**2:35-2:52 -- I don't hear the guitar here, but he did this on SNL

2:35  3X              4th time mute over 12th fret
e|-X---X---X-X-X-X-|-12*-12*-12*-12*-12*-12*-12*-12*-|
B|-X-r-X-r-X-X-X-X-|-12*-12*-12*-12*-12*-12*-12*-12*-|
G|-X-e-X-e-X-X-X-X-|-12*-12*-12*-12*-12*-12*-12*-12*-|
D|-X-s-X-s-X-X-X-X-|-12*-12*-12*-12*-12*-12*-12*-12*-|
A|-X-t-X-t-X-X-X-X-|-12*-12*-12*-12*-12*-12*-12*-12*-|
E|-X---X---X-X-X-X-|-12*-12*-12*-12*-12*-12*-12*-12*-|

2:44  3X              4th time mute over 12th fret
e|-X---X---X-X-X-X-|-12*-12*-12*-12*-12*-12*-12*-12*-|
B|-X-r-X-r-X-X-X-X-|-12*-12*-12*-12*-12*-12*-12*-12*-|
G|-X-e-X-e-X-X-X-X-|-12*-12*-12*-12*-12*-12*-12*-12*-|
D|-X-s-X-s-X-X-X-X-|-12*-12*-12*-12*-12*-12*-12*-12*-|
A|-X-t-X-t-X-X-X-X-|-12*-12*-12*-12*-12*-12*-12*-12*-|
E|-X---X---X-X-X-X-|-12*-12*-12*-12*-12*-12*-12*-12*-|

2:53-3:27
Rest

3:28 3X              4th time mute over 12th fret
e|-X---X---X-X-X-X-|-12*-12*-12*-12*-12*-12*-12*-12*-|
B|-X-r-X-r-X-X-X-X-|-12*-12*-12*-12*-12*-12*-12*-12*-|
G|-X-e-X-e-X-X-X-X-|-12*-12*-12*-12*-12*-12*-12*-12*-|
D|-X-s-X-s-X-X-X-X-|-12*-12*-12*-12*-12*-12*-12*-12*-|
A|-X-t-X-t-X-X-X-X-|-12*-12*-12*-12*-12*-12*-12*-12*-|
E|-X---X---X-X-X-X-|-12*-12*-12*-12*-12*-12*-12*-12*-|

3:37 3X              4th time fill (prebend half step for first 2 notes)
e|-X---X---X-X-X-X-|------------------------|
B|-X-r-X-r-X-X-X-X-|------------------------|
G|-X-e-X-e-X-X-X-X-|-pb7^8-7^8r7-7-7-7-7-7--|
D|-X-s-X-s-X-X-X-X-|------------------------|
A|-X-t-X-t-X-X-X-X-|------------------------|
E|-X---X---X-X-X-X-|------------------------|

3:46 7x                        8th time
e|-13-8-12-8-10-8-12-8-10-8--|-13-8-12-8-10~-|
B|---------------------------|---------------|
G|---------------------------|---------------|
D|---------------------------|---------------|
A|---------------------------|---------------|
E|---------------------------|---------------|

4:03
e|-------------------------------------------------------------------|
B|-/20^-pb20^-pb20^-pb20^r----------20^-pb20^-pb20^-pb20^r-----------|
G|------------------------17171717-------------------------17171717--|
D|-------------------------------------------------------------------|
A|-------------------------------------------------------------------|
E|-------------------------------------------------------------------|

e|--------------------------------------------------------|
B|-20^-pb20^-pb20^-pb20^r----------1818181818181818-------|
G|------------------------17171717------------------------|
D|--------------------------------------------------------|
A|--------------------------------------------------------|
E|--------------------------------------------------------|

4:12
e|-------------------------------------------------------------------|
B|-18181818-17171717-15151515-------18181818-17171717-15151515-------|
G|----------------------------1717~----------------------------1717~-|
D|-------------------------------------------------------------------|
A|-------------------------------------------------------------------|
E|-------------------------------------------------------------------|

e|------------------------------------------------------------|
B|-18181818-17171717-15151515-------20^-pb20^-pb20^-pb20^r20~-|
G|----------------------------1717~---------------------------|
D|------------------------------------------------------------|
A|------------------------------------------------------------|
E|------------------------------------------------------------|

4:21 3x                        4th time
e|-13-8-12-8-10-8-12-8-10-8--|-13-8-12-8-10~-|
B|---------------------------|---------------|
G|---------------------------|---------------|
D|---------------------------|---------------|
A|---------------------------|---------------|
E|---------------------------|---------------|
Tap to rate this tab
# A B C D E F G H I J K L M N O P Q R S T U V W X Y Z