Song name
# A B C D E F G H I J K L M N O P Q R S T U V W X Y Z

Fun - Carry On tab

Carry On (Intro) by fun.

Tabbed by: Nick B.
Tuning: Standard

My first tab. I noticed that nobody had posted this part of the song. Hope you 
guys like it. Great song by a great band.

Tabbed by: Nick B.
Tuning: Standard


     1 & a 2 & a 3 & a 4 & a 1 & a 2 & a 3 & a 4 & a
     F                       Bb
e|-------------------1-----------------------------1---------|
B|---------------1-------1---------------3-----3-------------|
G|---------------------------3~~~~~~-------------------------|
D|---3~~~~~~-------------------------------------------------|
A|--------------------------(1)------------------------------|
E|--(1)------------------------------------------------------|


     1 & a 2 & a 3 & a 4 & a 1 & a 2 & a 3 & a 4 & a
     F                       Bb      
e|-----------------------------------------------------------|
B|---3p1---1-----------1-------------------------------------| 
G|-------2-----------2---2p0---------------------------------| (repeat all
D|---------------------------3~~~~~~-------------------------|    once)
A|-----------------------------------------------------------|
E|--(1)---------------------(1)------------------------------|


Have a nice day! All glory to God. Love you.

************************************

| p   pull-off
| ~   vibrato

************************************
Tap to rate this tab
 
# A B C D E F G H I J K L M N O P Q R S T U V W X Y Z