Funczion Sounds - Orange Twilight So Close tab

Song: Orange Twilight So Close

        By: Funczion SOUNDS     (http://funczion.com/)

        As seen in: Yume Miru Kusuri

        Tabbed by: Yours Truly.


I've only tabbed Guitar 1 completely, so if you've managed to tab Guitar 2,
please, please e-mail me @ AnonymousofRed@live.com
(with your kind name, so I can add that too) and I'll add it to this tab.
If you've got anything else to say, feel free to e-mail me as well.



The rhythm probably isn't spot-on, but I'm sure you'll understand it.

/ : slide up
\ : slide down
* : Don't play, just hold.
(): "Ghost notes", meaning you play them very softly.

[Guitar 2] [intro] x3
----------0-----------0------------------------------------|
------0-----0---0-------0---0------------------------------|
----2---2-----2---2-------2--------------------------------|
--2-----------------2--------------------------------------|
0----------------------------------------------------------|
-----------------------------------------------------------|

[Guitar 1]
(0:10)
-----------------------------------------------------------|
10/12---10---14\9--------------9-10--9---------------------|
------------------------10/11-----------5/6-9--------------|
-----------------------------------------------------------|
-----------------------------------------------------------|
-----------------------------------------------------------|

-----------------------------------------------------------|
10/12---10---14--9-----6/7----6/7--9--10--12--14\9---------|
-----------------------------------------------------------|
-----------------------------------------------------------|
-----------------------------------------------------------|
-----------------------------------------------------------|

-----------------------------------------------------------|
10/12---10---14\9--------------9-10--9---------------------|
------------------------10/11-----------5/6*-*6/9----------|
-----------------------------------------------------------|
-----------------------------------------------------------|
-----------------------------------------------------------|

-----------------------------------------------------------|
10/12---10---14--9-----6/7----6/7--9--10--12--14\9---------|
-----------------------------------------------------------|
-----------------------------------------------------------|
-----------------------------------------------------------|
-----------------------------------------------------------|

(01:02)
-----------------------------------------------------------|
9-9----6/7-----------------------------------7-------------|
-----------9--8-----6--8/9-8--------------------6----------|
-----------------------------------------------------------|
-----------------------------------------------------------|
-----------------------------------------------------------|

-----------------------------------------------------------|
--------------------7--------------9-----------------------|
6--8----6--8/9-8-------6-------6-8-------------------------|
-----------------------------9-----------------------------|
-----------------------------------------------------------|
-----------------------------------------------------------|

-----------------------------------------------------------|
-----------------------9-----------------------------------|
6---9---9-9-9----6--9-----9----6--4/6--6-------------------|
-----------------------------------------------------------|
-----------------------------------------------------------|
-----------------------------------------------------------|

-----------------------------------------------------------|
----------------------9--10--12--13--15----15/17--15--14---|
6---9---9-9-9----6--9--------------------------------------|
-----------------------------------------------------------|
-----------------------------------------------------------|
-----------------------------------------------------------|

(02:02)
-----------------------------------------------------------|
12--10--14--9----------------9-10--9--------5--------------|
------------------------10/11----------5/6-----------------|
-----------------------------------------------------------|
-----------------------------------------------------------|
-----------------------------------------------------------|

-----------------------------------------------------------|
10/12--10--14--9---6/7------6/7---9--10--12--14--17--------|
-----------------------------------------------------------|
-----------------------------------------------------------|
-----------------------------------------------------------|
-----------------------------------------------------------|

-----------------------------------------------------------|
15--14-12--10-9-7----------------------7-------------------|
-------------------9-8----6--8/9--8-------6----------------|
-----------------------------------------------------------|
-----------------------------------------------------------|
-----------------------------------------------------------|

First little solo (02:39)
-----------------------------------------------------------|
--12-10--9/10\9-9------------------------------------------|
9-----------------9-------------------------6--8/9-8-------|
---------------------11--9----7\6-----6-7-9----------------|
-----------------------------------------------------------|
-----------------------------------------------------------|

-----------------------------------------------------------|
-----------7----------------9--------------9\5-------------|
6--8/9-8------6---------6-8--------------------------------|
--------------------8/9------------------------------------|
-----------------------------------------------------------|
-----------------------------------------------------------|

-----------------------------------------------------------|
-----------------9-----------------------------------------|
9--9-9-9\6-6--9------9--6--3/4*-*4/6-6---------------------|
-----------------------------------------------------------|
-----------------------------------------------------------|
-----------------------------------------------------------|

Second little solo (03:06)
----7----------------------7-5-4---4-----------------------|
-------10\9-9\5-----5-(5)-------(5)------------------------|
6-9---------------6----------------------------------------|
-----------------------------------------------------------|
-----------------------------------------------------------|
-----------------------------------------------------------|

-----------------------------------------------------------|
------------------9-10-12-13-15---15/17--15--14--9/12-10-9-|
8/9--9-9-9\6-6--9------------------------------------------|
-----------------------------------------------------------|
-----------------------------------------------------------|
-----------------------------------------------------------|

That's it.
Tap to rate this tab
 
# A B C D E F G H I J K L M N O P Q R S T U V W X Y Z