Song name
# A B C D E F G H I J K L M N O P Q R S T U V W X Y Z

Funczion Sounds - To The World Of Dreams tab

Song: To the World of Dreams

        By: Funczion SOUNDS     (http://funczion.com/)

        As seen in: Yume Miru Kusuri

        Tabbed by: Yours Truly.


I've only tabbed the part after 01:38 completely,
please e-mail me @ AnonymousofRed@live.com if you can tab/find tabs for the part before it
(with your kind name, so I can add that too) and I'll add it to this tab.
If you've got anything else to say, feel free to e-mail me as well.



The rhythm probably isn't spot-on, but I'm sure you'll understand it.

/ : slide up
\ : slide down
(): "Ghost notes", meaning you play them very softly.


(01:38)
-----------------------------------------------------------|
---3----3--6/8--3----3---------1----1--4/6--1--------------|
-5----5------------5---------3----3------------2-2---------|
-----------------------------------------------------------|
-----------------------------------------------------------|
-----------------------------------------------------------|

-----------------------------------------------------------|
---3----3--6/8--3----3-------6/8-8--6-6--4\3---------------|
-5----5------------5--------------------------5-3/5--------|
-----------------------------------------------------------|
-----------------------------------------------------------|
-----------------------------------------------------------|

-----------------------------------------------------------|
---3----3--6/8--3----3---------1----1--4/6--1--------------|
------5------------5---------3----3------------2-2---------|
-----------------------------------------------------------|
-----------------------------------------------------------|
-----------------------------------------------------------|

-----------------------------------------------------------|
---3----3--6/8--3------------------------------------------|
-5----5--------------5-5--3-3------5-7---------------------|
-----------------------------------------------------------|
-----------------------------------------------------------|
-----------------------------------------------------------|

-----------------------------------------------------------|
-----------8/9-------------------------6/7-----------------|
---8--6-8-------8--6-8--(8)--4-6--4-6-------6--3-3---------|
-----------------------------------------------------------|
-----------------------------------------------------------|
-----------------------------------------------------------|

-----------------------------------------------------------|
-----------8/9------------------------12-------------------|
-6-8--6-8-------8--6-8--8-9-11--9-11-----11---12-----------|
-----------------------------------------------------------|
-----------------------------------------------------------|
-----------------------------------------------------------|

-------------------------------7--8-7----------------------|
--5--3-5/7-7--8--7-8/10-10-------------8--5--3-3(\1)-------|
-----------------------------------------------------------|
-----------------------------------------------------------|
-----------------------------------------------------------|
-----------------------------------------------------------|

--------------------------------------10-8-----------------|
--5--3-5/8-8--7--8/10-7-8/10---8-8--8-------12-8---5--3\1--|
-----------------------------------------------------------|
-----------------------------------------------------------|
-----------------------------------------------------------|
-----------------------------------------------------------|

-------------------------------7--8-7----------------------|
--5--3-5/7-7--8--7-8/10-10-------------8--5--3-3-----------|
-----------------------------------------------------------|
-----------------------------------------------------------|
-----------------------------------------------------------|
-----------------------------------------------------------|

-----------3--2--3/5-------------6--5--6/8-8---------------|
---5--3-5------------3--4--3-4----------------6--8---------|
-----------------------------------------------------------|
-----------------------------------------------------------|
-----------------------------------------------------------|
-----------------------------------------------------------|

Enjoy.
Tap to rate this tab
# A B C D E F G H I J K L M N O P Q R S T U V W X Y Z