Song name
# A B C D E F G H I J K L M N O P Q R S T U V W X Y Z

Funeral Dress - Terrorist Attack tab

-----------------------------------------------------------------------------
			     Terrorist Attack - Funeral Dress
-----------------------------------------------------------------------------
Band: Funeral Dress
Song: Terrorist Attack
Album: A Way of Life

Tabbed by: deathx88
Email: deathx88@yahoo.com

Tuning: Standard



Riff 1 

     E  S E  S E  E  S E  S E     E  S E  S E  E  E  E  E   
E||----------------------------|---------------------------|  x 12
B||----------------------------|---------------------------|
G||----------------------------|---------------------------|
D||---------------8--8-8--8-8--|--7--7-7--7-7--7--7--5-----|
A||--7--7-7--7-7--6--6-6--6-6--|--5--5-5--5-5--5--5--3--5--|
E||--5--5-5--5-5---------------|------------------------3--|




Riff 2 (chorus) x3

  E  Q    E  E  S E  S E     E  Q    E  E  S E  S E   
--------------------------|--------------------------|
--------------------------|--------------------------|
--------------------------|--------------------------|
-------------5---------5--|-------------5---------5--|
--7--7----7--3--5-5--5-3--|--7--7----7--3--5-5--5-3--|
--5--5----5-----3-3--3----|--5--5----5-----3-3--3----|


  E  Q    E  E  S E  S E     E  Q    E  E  S E  S E   
--------------------------|--------------------------|
--------------------------|--------------------------|
--------------------------|--------------------------|
--7--7----7--8--8-7--7-5--|--7--7----7--8--8-7--7-5--|
--5--5----5--6--6-5--5-3--|--5--5----5--6--6-5--5-3--|
--------------------------|--------------------------|




  W                   W                  
-------------------|-------------------|
-------------------|-------------------|
-------------------|-------------------|
-------------------|-------------------|
--7----------------|--L----------------|
--5----------------|--L----------------|




Riff 1 

     E  S E  S E  E  S E  S E     E  S E  S E  E  E  E  E   
E||----------------------------|---------------------------|  x 8
B||----------------------------|---------------------------|
G||----------------------------|---------------------------|
D||---------------8--8-8--8-8--|--7--7-7--7-7--7--7--5-----|
A||--7--7-7--7-7--6--6-6--6-6--|--5--5-5--5-5--5--5--3--5--|
E||--5--5-5--5-5---------------|------------------------3--|




Riff 2 (chorus) x3

  E  Q    E  E  S E  S E     E  Q    E  E  S E  S E   
--------------------------|--------------------------|
--------------------------|--------------------------|
--------------------------|--------------------------|
-------------5---------5--|-------------5---------5--|
--7--7----7--3--5-5--5-3--|--7--7----7--3--5-5--5-3--|
--5--5----5-----3-3--3----|--5--5----5-----3-3--3----|


  E  Q    E  E  S E  S E     E  Q    E  E  S E  S E   
--------------------------|--------------------------|
--------------------------|--------------------------|
--------------------------|--------------------------|
--7--7----7--8--8-7--7-5--|--7--7----7--8--8-7--7-5--|
--5--5----5--6--6-5--5-3--|--5--5----5--6--6-5--5-3--|
--------------------------|--------------------------|




Bridge x2

  S S S S E  E  S S S S E  E     S S S S E  E  Q    Q     
------------------------------|--------------------------|
------------------------------|--------------------------|
------------------------------|--------------------------|
------------------------------|----------------8----7----|
--7-7-7-7-7-----7-7-7-7-7-----|--7-7-7-7-7-----6----5----|
--5-5-5-5-5-----5-5-5-5-5-----|--5-5-5-5-5---------------|


  Q    E  Q    E  Q       Q    E  Q    E  Q    
-----------------------|-----------------------|
-----------------------|-----------------------|
-----------------------|-----------------------|
--5----5--5----5--5----|--7----7--8----8--8----|
--3----3--3----3--3----|--5----5--6----6--6----|
-----------------------|-----------------------|

  S S S S E  E  S S S S E  E     S S S S E  E  Q    Q     
------------------------------|--------------------------|
------------------------------|--------------------------|
------------------------------|--------------------------|
------------------------------|----------------8----7----|
--7-7-7-7-7-----7-7-7-7-7-----|--7-7-7-7-7-----6----5----|
--5-5-5-5-5-----5-5-5-5-5-----|--5-5-5-5-5---------------|


  Q    E  Q    E  Q       Q    Q    Q    Q      
-----------------------|----------------------|
-----------------------|----------------------|
-----------------------|----------------------|
--5----5--5----5--5----|--7----8--------------|
--3----3--3----3--3----|--5----6----5----5----|
-----------------------|------------3----3----|





  W                  W                  W                  W                
------------------|------------------|------------------|------------------|
------------------|------------------|------------------|------------------|
------------------|------------------|------------------|------------------|
------------------|------------------|------------------|------------------|
--7---------------|--L---------------|--7---------------|--L---------------|
--5---------------|--L---------------|--5---------------|--L---------------|




Riff 1 

     E  S E  S E  E  S E  S E     E  S E  S E  E  E  E  E   
E||----------------------------|---------------------------|  x 6
B||----------------------------|---------------------------|
G||----------------------------|---------------------------|
D||---------------8--8-8--8-8--|--7--7-7--7-7--7--7--5-----|
A||--7--7-7--7-7--6--6-6--6-6--|--5--5-5--5-5--5--5--3--5--|
E||--5--5-5--5-5---------------|------------------------3--|




Riff 2 (chorus) x3

  E  Q    E  E  S E  S E     E  Q    E  E  S E  S E   
--------------------------|--------------------------|
--------------------------|--------------------------|
--------------------------|--------------------------|
-------------5---------5--|-------------5---------5--|
--7--7----7--3--5-5--5-3--|--7--7----7--3--5-5--5-3--|
--5--5----5-----3-3--3----|--5--5----5-----3-3--3----|


  E  Q    E  E  S E  S E     E  Q    E  E  S E  S E   
--------------------------|--------------------------|
--------------------------|--------------------------|
--------------------------|--------------------------|
--7--7----7--8--8-7--7-5--|--7--7----7--8--8-7--7-5--|
--5--5----5--6--6-5--5-3--|--5--5----5--6--6-5--5-3--|
--------------------------|--------------------------|




Bridge x2

  S S S S E  E  S S S S E  E     S S S S E  E  Q    Q     
------------------------------|--------------------------|
------------------------------|--------------------------|
------------------------------|--------------------------|
------------------------------|----------------8----7----|
--7-7-7-7-7-----7-7-7-7-7-----|--7-7-7-7-7-----6----5----|
--5-5-5-5-5-----5-5-5-5-5-----|--5-5-5-5-5---------------|


  Q    E  Q    E  Q       Q    E  Q    E  Q    
-----------------------|-----------------------|
-----------------------|-----------------------|
-----------------------|-----------------------|
--5----5--5----5--5----|--7----7--8----8--8----|
--3----3--3----3--3----|--5----5--6----6--6----|
-----------------------|-----------------------|

  S S S S E  E  S S S S E  E     S S S S E  E  Q    Q     
------------------------------|--------------------------|
------------------------------|--------------------------|
------------------------------|--------------------------|
------------------------------|----------------8----7----|
--7-7-7-7-7-----7-7-7-7-7-----|--7-7-7-7-7-----6----5----|
--5-5-5-5-5-----5-5-5-5-5-----|--5-5-5-5-5---------------|


  Q    E  Q    E  Q       Q    Q    Q    Q      
-----------------------|----------------------|
-----------------------|----------------------|
-----------------------|----------------------|
--5----5--5----5--5----|--7----8--------------|
--3----3--3----3--3----|--5----6----5----5----|
-----------------------|------------3----3----|




Outro x5


  S S S S E  Q    Q.       S S S S E  Q    Q.       S S S S E  Q    Q.     
------------------------|------------------------|------------------------|
------------------------|------------------------|------------------------|
------------------------|------------------------|------------------------|
------------------------|------------------------|------------------------|
--7-7-7-7-7-------------|--7-7-7-7-7-------------|--7-7-7-7-7-------------|
--5-5-5-5-5-------------|--5-5-5-5-5-------------|--5-5-5-5-5-------------|




  Q.     Q.     Q      
---------------------||
---------------------||
---------------------||
---------------------||
--7------------------||
--5------------------||




Duration Legend
---------------
W - whole
H - half
Q - quarter
E - 8th
S - 16th
T - 32nd
X - 64th
. - note dotted
|-n-|  - n-tuplets


Tablature Legend
----------------
L - tied note
x - dead note
g - grace note
(n) - ghost note
> - accentuded note
NH - natural harmonic
AH - artificial harmonic
TH - tapped harmonic
SH - semi harmonic
PH - pitch harmonic
h - hammer on
p - pull off
b - bend
br - bendRelease
pb - preBend
pbr - preBendRelease
brb - bendReleaseBend
\n/ - tremolo bar dip
\n - tremolo bar dive
-/n - tremolo bar Release up
/n\ - tremolo bar inverted dip
/n - tremolo bar return
-\n - tremolo bar Release down
S - shift slide
s - legato slide
/ -  slide into from below or out of upwards
\ -  slide into from above or out of downwards
~ - vibrato
W - wide vibrato
tr - trill
TP - tremolo picking
T - tapping
S - slap
P - pop
< - fade in
^ - brush up
v - brush down
Tap to rate this tab
 
# A B C D E F G H I J K L M N O P Q R S T U V W X Y Z