Song name
# A B C D E F G H I J K L M N O P Q R S T U V W X Y Z

Funeral Dress - Party On tab

[THIS IS THE CORRECTED TAB!]


-------------------------------------------------------------------------------
			     Party On - Funeral Dress
-------------------------------------------------------------------------------

Artist: Funeral Dress
Song:   Party On
Tabbed: Jan Van Gulck
Email:  janvangulck@hotmail.com





| * Palm Mute



Tuning: D A D G B e





Intro:


Guitar 1:

repeat (2 - 5) 2X
			   
 1                         2
e|-------------------------|-------------------------|
B|--------------------3-5--|--6-5-3-5-3-1-3-----3-5--|
G|-------------------------|-------------------------|
D|-------------------------|-------------------------|
A|-------------------------|-------------------------|
D|-------------------------|-------------------------|
                         


 3                         4
e|-------------------------|-------------------------|
B|--6-5-3-5-5-3-1-----3-5--|--6-5-3-5-3-1-3-1-0-1-0--|
G|-------------------------|-------------------------|
D|-------------------------|-------------------------|
A|-------------------------|-------------------------|
D|-------------------------|-------------------------|


  /------- 1st time -------\  /------- 2nd time -------\
 5                           5
e|-------------------------| |-------------------------|
B|----0-1-0-1-3-1-----3-5--| |----0-1-0-1-3-1----------|
G|--2----------------------| |--2----------------------|
D|-------------------------| |-------------------------|
A|-------------------------| |-------------------------|
D|-------------------------| |-------------------------|
                    




Guitar 2:

repeat (2 - 5) 2X


 1                         2
e|-------------------------|-------------------------|
B|-------------------------|-------------------------|
G|-------------------------|-------------------------|
D|-------------------------|--3-----10----5----------|
A|-------------------------|--3-----10----5----------|
D|-------------------------|--3-----10----5----------|


 3                         4
e|-------------------------|-------------------------|
B|-------------------------|-------------------------|
G|-------------------------|-------------------------|
D|--3-----5-----10---------|--3-----5-----10----7----|
A|--3-----5-----10---------|--3-----5-----10----7----|
D|--3-----5-----10---------|--3-----5-----10----7----|


 5                         
e|-------------------------|
B|-------------------------|
G|-------------------------|
D|--3-----5-----10---------|
A|--3-----5-----10---------|
D|--3-----5-----10---------|




Verse 1:

repeat 2X
 
Guitar 1 & 2:




  /---- repeat 3 times ----\
 
 1                         
e|-------------------------|-------------------------|
B|-------------------------|-------------------------|
G|-------------------------|-------------------------|
D|--3-3-3--3-3--5-5-5--5-5-|--3-----10----5----------|
A|--3-3-3--3-3--5-5-5--5-5-|--3-----10----5----------|
D|--3-3-3--3-3--5-5-5--5-5-|--3-----10----5----------|
    * * *  * *  * * *  * *



Pre Chorus:

Guitar 1:



 1                         2
e|-5-----------------------|-5-----------------------|
B|---5---1-0-1-0-----0-1-3-|---5---1-0-1-0-----------|
G|-----2---------0-2-------|-----2---------0-2-------|
D|-------------------------|-------------------------|
A|-------------------------|-------------------------|
D|-------------------------|-------------------------|


 3                         4
e|-5-----------------------|-5-----------------------|
B|---5---1-0-1-0-----0-1-3-|---5---1-0-1-0-------3-5-|
G|-----2---------0-2-------|-----2---------0-2-------|
D|-------------------------|-------------------------|
A|-------------------------|-------------------------|
D|-------------------------|-------------------------|





Guitar 2:


 1                         2
e|-------------------------|-------------------------|
B|-------------------------|-------------------------|
G|-------------------------|-------------------------|
D|--7-7-7-7-5---5---3---3--|--7-7-7-7-5---5---3------|
A|--7-7-7-7-5---5---3---3--|--7-7-7-7-5---5---3------|
D|--7-7-7-7-5---5---3---3--|--7-7-7-7-5---5---3------|


 3                           4
e|---------------------------|-------------------------|
B|---------------------------|-------------------------|
G|---------------------------|-------------------------|
D|--7-7-10-10-5---5---3---3--|--7-7-7-7-5---5---3---3--|
A|--7-7-10-10-5---5---3---3--|--7-7-7-7-5---5---3---3--|
D|--7-7-10-10-5---5---3---3--|--7-7-7-7-5---5---3---3--|




Chorus:


Guitar 1:


			   
 1                         2
e|-------------------------|-------------------------|
B|--6-5-3-5-3-1-3-----3-5--|--6-5-3-5-5-3-1-----3-5--|
G|-------------------------|-------------------------|
D|-------------------------|-------------------------|
A|-------------------------|-------------------------|
D|-------------------------|-------------------------|
                         


 3
e|-------------------------|-------------------------|
B|--6-5-3-5-3-1-3-1-0-1-0--|----0-1-0-1-3-1----------|
G|-------------------------|--2----------------------|
D|-------------------------|-------------------------|
A|-------------------------|-------------------------|
D|-------------------------|-------------------------|

                    




Guitar 2:


 1                         2
e|-------------------------|-------------------------|
B|-------------------------|-------------------------|
G|-------------------------|-------------------------|
D|--3-----10----5----------|--3-----5-----10---------|
A|--3-----10----5----------|--3-----5-----10---------|
D|--3-----10----5----------|--3-----5-----10---------|


 3
e|-------------------------|-------------------------|
B|-------------------------|-------------------------|
G|-------------------------|-------------------------|
D|--3-----5-----10----7----|--3-----5-----10---------|
A|--3-----5-----10----7----|--3-----5-----10---------|
D|--3-----5-----10----7----|--3-----5-----10---------|




Verse 2:


Guitar 1 & 2:




  /---- repeat 3 times ----\
 
 1                         
e|-------------------------|-------------------------|
B|-------------------------|-------------------------|
G|-------------------------|-------------------------|
D|--3-3-3--3-3--5-5-5--5-5-|--3-----10----5----------|
A|--3-3-3--3-3--5-5-5--5-5-|--3-----10----5----------|
D|--3-3-3--3-3--5-5-5--5-5-|--3-----10----5----------|
    * * *  * *  * * *  * *




Guitar 1:

 
  /---- repeat 3 times ----\

 1                         2
e|-------------------------|-------------------------|
B|--10---10------12---12---|-------------------------|
G|--10---10------12---12---|-------------------------|
D|--10---10------12---12---|--3-----10----5----------|
A|-------------------------|--3-----10----5----------|
D|-------------------------|--3-----10----5----------|


Guitar 2:



  /---- repeat 3 times ----\
 
 1                         
e|-------------------------|-------------------------|
B|-------------------------|-------------------------|
G|-------------------------|-------------------------|
D|--3-3-3--3-3--5-5-5--5-5-|--3-----10----5----------|
A|--3-3-3--3-3--5-5-5--5-5-|--3-----10----5----------|
D|--3-3-3--3-3--5-5-5--5-5-|--3-----10----5----------|
    * * *  * *  * * *  * *




Pre Chorus:

Guitar 1:



 1                         2
e|-5-----------------------|-5-----------------------|
B|---5---1-0-1-0-----0-1-3-|---5---1-0-1-0-----------|
G|-----2---------0-2-------|-----2---------0-2-------|
D|-------------------------|-------------------------|
A|-------------------------|-------------------------|
D|-------------------------|-------------------------|


 3                         4
e|-5-----------------------|-5-----------------------|
B|---5---1-0-1-0-----0-1-3-|---5---1-0-1-0-----------|
G|-----2---------0-2-------|-----2---------0-2-------|
D|-------------------------|-------------------------|
A|-------------------------|-------------------------|
D|-------------------------|-------------------------|





Guitar 2:


 1                         2
e|-------------------------|-------------------------|
B|-------------------------|-------------------------|
G|-------------------------|-------------------------|
D|--7-7-7-7-5---5---3---3--|--7-7-7-7-5---5---3------|
A|--7-7-7-7-5---5---3---3--|--7-7-7-7-5---5---3------|
D|--7-7-7-7-5---5---3---3--|--7-7-7-7-5---5---3------|


 3                           4
e|---------------------------|-------------------------|
B|---------------------------|-------------------------|
G|---------------------------|-------------------------|
D|--7-7-10-10-5---5---3---3--|--7-7-7-7-5---5---3---3--|
A|--7-7-10-10-5---5---3---3--|--7-7-7-7-5---5---3---3--|
D|--7-7-10-10-5---5---3---3--|--7-7-7-7-5---5---3---3--|



Bass Interlude:


G|---------------------------------|---------------------------------|
D|---------------------------------|---------------------------------|
A|---------------------------------|---------------------------------|
E|-1-1-1-1-8-8-8-8-3-3-3-3-3-3-3-3-|-1-1-1-1-8-8-8-8-3-3-3-3-3-3-3-3-|






Solo

Guitar 1:



 1                         2
e|-5-----------------------|-5-----------------------|
B|---5---1-0-1-0-----0-1-3-|---5---1-0-1-0-----------|
G|-----2---------0-2-------|-----2---------0-2-------|
D|-------------------------|-------------------------|
A|-------------------------|-------------------------|
D|-------------------------|-------------------------|


 3                         4
e|-5-----------------------|-5-----------------------|
B|---5---1-0-1-0-----0-1-3-|---5---1-0-1-0------3--5-|
G|-----2---------0-2-------|-----2---------0-2-------|
D|-------------------------|-------------------------|
A|-------------------------|-------------------------|
D|-------------------------|-------------------------|





Guitar 2:


 1                         2
e|-------------------------|-------------------------|
B|-------------------------|-------------------------|
G|-------------------------|-------------------------|
D|--7-7-7-7-5---5---3---3--|--7-7-7-7-5---5---3------|
A|--7-7-7-7-5---5---3---3--|--7-7-7-7-5---5---3------|
D|--7-7-7-7-5---5---3---3--|--7-7-7-7-5---5---3------|


 3                           4
e|---------------------------|-------------------------|
B|---------------------------|-------------------------|
G|---------------------------|-------------------------|
D|--7-7-10-10-5---5---3---3--|--7-7-7-7-5---5---3---3--|
A|--7-7-10-10-5---5---3---3--|--7-7-7-7-5---5---3---3--|
D|--7-7-10-10-5---5---3---3--|--7-7-7-7-5---5---3---3--|




Chorus:


Guitar 1:

repeat 3X
			   
 1                         2
e|-------------------------|-------------------------|
B|--6-5-3-5-3-1-3-----3-5--|--6-5-3-5-5-3-1-----3-5--|
G|-------------------------|-------------------------|
D|-------------------------|-------------------------|
A|-------------------------|-------------------------|
D|-------------------------|-------------------------|
                         


 3
e|-------------------------|
B|--6-5-3-5-3-1-3-1-0-1-0--|
G|-------------------------|
D|-------------------------|
A|-------------------------|
D|-------------------------|


  /- 1st & 2nd time -------\  /------- 3th time -------\
 4                           4
e|-------------------------| |-------------------------|
B|----0-1-0-1-3-1-----3-5--| |----0-1-0-1-3-1----------|
G|--2----------------------| |--2----------------------|
D|-------------------------| |-------------------------|
A|-------------------------| |-------------------------|
D|-------------------------| |-------------------------|
                    




Guitar 2:

repeat 3X


 1                         2
e|-------------------------|-------------------------|
B|-------------------------|-------------------------|
G|-------------------------|-------------------------|
D|--3-----10----5----------|--3-----5-----10---------|
A|--3-----10----5----------|--3-----5-----10---------|
D|--3-----10----5----------|--3-----5-----10---------|


 3
e|-------------------------|-------------------------|
B|-------------------------|-------------------------|
G|-------------------------|-------------------------|
D|--3-----5-----10----7----|--3-----5-----10---------|
A|--3-----5-----10----7----|--3-----5-----10---------|
D|--3-----5-----10----7----|--3-----5-----10---------|



-------------------------------------------------------------------------------


Intro


Verse 1:

Another lonely night at home
Track of time completely gone
Still the end is very near
I'm gonna get right out of here

Things won't seem so dumb
When I stop feeling numb
I'm marching with one goal
All for one and beer for all



Pre Chorus

Out of my way, I am going to the party
No I won't stay at home
Out of my way cos I'm going to the party
I'm gonna party all night long


Chorus

Party on, party on, party on
Party on, party on, party on
Beer and whiskey all night long
Party on, party on, party on



Verse 2:

When the sun starts a new day
All the vampires hide away
Unstable and shaking hands
I'm gonna make a stand

Just listen and hear me out
Don't do it out of pride
Drugs, girls or lemonade
Beer is my partydate


Pre Chorus:

Out of my way, I am going to the party
No I won't stay at home
Out of my way cos I'm going to the party
I'm gonna party all night long



Bass Interlude


Solo


Chorus:

Party on, party on, party on
Party on, party on, party on
Beer and whiskey all night long
Party on, party on, party on

Party on, party on, party on
Party on, party on, party on
Beer and whiskey all night long
Party on, party on, party on
Tap to rate this tab
 
# A B C D E F G H I J K L M N O P Q R S T U V W X Y Z