Guitaretab - guitar tabs
Song name
# A B C D E F G H I J K L M N O P Q R S T U V W X Y Z

Funeral Dress - A Way Of Life tab

                           A WAY OF LIFE
                        -------------------
                           FUNERAL DRESS
                      tabbed by: matt goolsby

x* -open harmonic (E7)
b -bend
/ -slide
x -blank strum


e|-------------------------------------|
b|-------------------------------------|
g|-4-----------------------------------| intro
d|-2-222222-4--------5--------7--------|
a|----------2-222222-3-333333-5-555555-|
E|-0-----------------------------------|

e|-------------------------------------|
b|-------------------------------------|
g|-4-444444----------------------------| verse
d|-2-222222-4-444444-5-555555-7-777777-|
a|----------2-222222-3-333333-5-555555-|
E|-------------------------------------|

e|-------------------------------------------------------------|
b|----------4-45-54----------4-45-54----------4-45-54----------|
g|----------2-23-32----------2-23-32----------2-23-32----------| chorus
d|-4-x4-444---------4-x4-444---------4-x4-444---------7-777777-|
a|-2-x2-222---------2-x2-222---------2-x2-222---------5-555555-|
E|-------------------------------------------------------------|

e|----------|
b|----------|
g|----------| end chorus.
d|----------|
a|-7-777777-|
E|-5-555555-|
[ Tab from: http://www.guitaretab.com/f/funeral-dress/53235.html ]
e|---------------------------------------------|
b|---------------------------------------------|
g|---------------------------------------------| bridge
d|---------------------------------------------|
a|-9----------9----------9----------9----------|
E|-7-*xxxxxx*-7-*xxxxxx*-7-*xxxxxx*-7-*xxxxxx*-|

e|------------------------------------------------------------|
b|-10-10-8/10/8-10-10-8/10/8-10-10-8/10/8-10b---10-10/8-------|
g|------------------------------------------------------9-7/9-| solo
d|------------------------------------------------------------|
a|------------------------------------------------------------|
E|------------------------------------------------------------|

e|------------------------------------------------------------------|
b|------------------------------------------------------------------|
g|-9-9/7-------------------------12------12------12------12------12-|
d|-------9-9997-------------12/14---12/14---12/14---12/14---12/14---|
a|--------------10-9-9b-7-------------------------------------------|
E|------------------------------------------------------------------|

e|-------------------------------------------------------12-15/12-|
b|---------10b-10/12-15-10/12-15-10/12-15-10/12-15-12/15----------|
g|------12--------------------------------------------------------|
d|-12/14----------------------------------------------------------|
a|----------------------------------------------------------------|
E|----------------------------------------------------------------|

e|-------15b/12-|
b|-12/15--------|
g|--------------| end solo.
d|--------------|
a|--------------|
E|--------------|

e|---
b|---
g|-4- end.
d|-2-
a|---
E|---

SONG ORDER
------------
intro x4
verse x4
chorus x2
bridge
verse x4
bridge
solo
chorus
bridge
end.

 -aarrgh!
Related for A Way Of Life tab