Guitaretab - guitar tabs
Song name
# A B C D E F G H I J K L M N O P Q R S T U V W X Y Z

Funeral Dress - Victim Of Society tab

e-----------------------------------------------------------|
B-----------------------------------------------------------|
G-----------------------------------------------------------|
D---5-5--x-5-5--x-5-5--x-5-5--x-6-6--x-6-6--x-8-8--x-8-8--x-|
A---5-5--x-5-5--x-5-5--x-5-5--x-6-6--x-4-4--x-8-8--x-8-8--x-|
E---3-3--x-3-5--x-3-3--x-3-3--x-4-4--x-4-4--x-6-6--x-6-6--x-|



e---------------------------------|
B---------------------------------|
G---------------------------------|
D---8--------6--------8--------6--|
A---8--------6--------8--------6--|
E---6--------4--------6--------4--|
[ Tab from: http://www.guitaretab.com/f/funeral-dress/59468.html ]
Related for Victim Of Society tab