Guitaretab - guitar tabs
Song name
# A B C D E F G H I J K L M N O P Q R S T U V W X Y Z

Funeral Dress - Im In Love With Oi tab

Im In Love With Oi  Funeral Dress
Tabbed by: Taylor Sellers
Email: NoFX@herzeleid.net
Tuning: Standard

Intro Bass
G|-----------------------------------------|
D|-----------------------------------------|x2
A|-------------------------------3-3-------|
E|-1/3--3-3-1/3--3-3--1/3--3-3------3-3---|

Verse
e|-------------------------------------------|
B|-------------------------------------------|
G|-------------------------------5-5---------|
D|-3/5--5-5--3/5--5-5--3/5--5-5--5-5--5-5----|x2
A|-3/5--5-5--3/5--5-5--3/5--5-5--3-3--5-5----|
E|-1/3--3-3-1/3--3-3--1/3--3-3-------3-3----|
[ Tab from: http://www.guitaretab.com/f/funeral-dress/69997.html ]
Chorus
e|-------------------------------------------------------------------------|
B|-------------------------------------------------------------------------|
G|--5-5-5-5-----------5-5-5-5-----------5-5-5-5----------------------------|
D|--5-5-5-5--5-5-5-5--5-5-5-5--5-5-5-5--5-5-5-5--5-5-5-5--3-3-3-3--5-5-5-5-|x2
A|--3-3-3-3--5-5-5-5--3-3-3-3--5-5-5-5--3-3-3-3--5-5-5-5--3-3-3-3--5-5-5-5-|
E|-----------3-3-3-3-----------3-3-3-3-----------3-3-3-3--1-1-1-1--3-3-3-3-|

VERSE
CHORUS
BRIDGE (chorus)
BRIDGE (bass plays chorus)
CHORUS x2
Repeat the F and G when they sing ...And I feel fine, and I feel fine.
Related for Im In Love With Oi tab