Song name
# A B C D E F G H I J K L M N O P Q R S T U V W X Y Z

Funeral Dress - Come On Follow tab

 --------------------------------------------------------------------------

                        FUNERAL DRESS - COME ON FOLLOW

--------------------------------------------------------------------------

pm=palm mute

 intro only 1st guitar

|----------------------------------------------------------------------|
|----5-5-3232---------2-----2--------5-5-3232---------2----------------|
|--2---------4-4---44--4-2---4-2---2---------4-4---44----4-2-1-2-------|
|----------------------------------------------------------------------|
|----------------------------------------------------------------------|
|----------------------------------------------------------------------|


INTRO BOTH GUITARS
  1st guitar
|------------------------------------------------------------------------|
|----5-5-3232---------2----2---------5-5-3232---------2------------------|
|--2---------4-4---44--4-2---4-2-1-2---------4-4---44----4-2-1-2-1-2-----|
|------------------------------------------------------------------------|
|------------------------------------------------------------------------|
|------------------------------------------------------------------------|
|                                                                        |
|                                                                        |
| 2nd guitar                                                             |
|------------------------------------------------------------------------|
|------------------------------------------------------------------------|
|----------9-9-9-9-7-7-7-7-----------------9-9-9-9-7-7-7-7---------------|
|--7-7-7-7-9-9-9-9-7-7-7-7-7-6-7-6-7-7-7-7-9-9-9-9-7-7-7-7-7-6-7-6-7-----|
|--7-7-7-7-7-7-7-7-5-5-5-5-7-6-7-6-7-7-7-7-7-7-7-7-5-5-5-5-7-6-7-6-7-----|
|--5-5-5-5-----------------5-4-5-4-5-5-5-5-----------------5-4-5-4-5-----|


  verse only 1st guitar
|-----------------------------------------------------------------------|
|-----------------------------------------------------------------------|
|---------555555-333333-555555--------555555----------------------------| 1x
|--333333-333333-111111-333333-333333-333333----------------------------|
|--111111----------------------111111-----------------------------------|
|-----------------------------------------------------------------------|
 pm...... ...... ...... ...... ...... ......

VERSE BOTH GUITARS
  1st guitar

|---------------------------------------------------------------------|
|---------------------------------------------------------------------|
|---3355-----------------555555-333333-555555-------------------------|
|---1133333-------333333-333333-111111-333333-------------------------|
|-------111-------111111----------------------------------------------|
|---------------------------------------------------------------------|
|              pm ...... ...... ...... ......                         |
|                                                                     | |                
                                                    |
| 2nd guitar                                                          |
|---------------------------------------------------------------------|
|---------------------------------------------------------------------|
|---7-9-222--------------9--9---7--7---9--9------77777--77777---------|
|---7-9-222-------7--7---9--9---7--7---9--9------77777--77777---------|
|---5-7-000-------7--7---7--7---5--5---7--7------55555--55555---------|
|-----------------5--5------------------------------------------------|


  chorus (only one guitar plays, i think...)

|----------------------------------------------------------------------|
|----------------------------------------------------------------------|
|----------9-9-9-9-7-7-7-7---------------------------------------------| 4x
|--7-7-7-7-9-9-9-9-5-5-5-5-7-7-7-7-------------------------------------|
|--7-7-7-7-7-7-7-7-5-5-5-5-7-7-7-7-------------------------------------|
|--5-5-5-5-----------------5-5-5-5-------------------------------------|


play verse of 1st guitar,verse of both guitars,chorus,intro with both guitars 2x then

|-----------------------------------------------------------------------|
|-----------------------------------------------------------------------|
|--7--9--2--7--9--2---79222--777-777-999-999-222-222---7---999999-----9-|
|--7--9--2--7--9--2---79222--777-777-999-999-222-222---7---999999-----9-|
|--5--7--0--5--7--0---57000--555-555-777-777-000-000---5---777777-----7-|
|-----------------------------------------------------------------------|
                           pm..  ..  ..  ..  ..  ..
Tap to rate this tab
# A B C D E F G H I J K L M N O P Q R S T U V W X Y Z