Song name
# A B C D E F G H I J K L M N O P Q R S T U V W X Y Z

Funeral Dress - Sex Drugs And Rock And Roll tab

Sex Drugs And Rock And Roll
Funeral Dress

Tabbed By: Taylor Sellers
Email: NoFX@herzeleid.net

Intro:
     A   G    A          A    G    A         A    G    A        E
e|---------------------------------------------------------------------|
B|---------------------------------------------------------------------|
G|---------------------------------------------------------------------|
D|---7-7--5-5--7--x-x-x--7-7--5-5--7--x-x-x--7-7--5-5--7-7-7-7--2~~~---|
A|---7-7--5-5--7--x-x-x--7-7--5-5--7--x-x-x--7-7--5-5--7-7-7-7--2~~~---|
E|---5-5--3-3--5--x-x-x--5-5--3-3--5--x-x-x--5-5--3-3--5-5-5-5--0~~~---|

Verse/Chorus
    A                 D        Eii
e|-----------------------------------------|
B|-----------------------------------------|
G|--------------------7-7-7-7--9-9-9-9-----|
D|---7-7-7-7-7-7-7-7--7-7-7-7--9-9-9-9-----|
A|---7-7-7-7-7-7-7-7--5-5-5-5--7-7-7-7-----|
E|---5-5-5-5-5-5-5-5-----------------------|

Bridge
    D                 G        A
e|---------------------------------------|
B|---------------------------------------|
G|---7-7-7-7-7-7-7-7---------------------|
D|---7-7-7-7-7-7-7-7--5-5-5-5--7-7-7-7---|
A|---5-5-5-5-5-5-5-5--5-5-5-5--7-7-7-7---|
E|--------------------3-3-3-3--5-5-5-5---|

Thats it! Its actually really easy.
Tap to rate this tab
# A B C D E F G H I J K L M N O P Q R S T U V W X Y Z