Song name
# A B C D E F G H I J K L M N O P Q R S T U V W X Y Z

Funeral Dress - Party Political Bullshit tab

Party, Political, Bullshit
FUNERAL DRESS

Tabbed by: Taylor
Email: NoFX@herzeleid.net
Tuning: Standard

Intro:
e|---------------------------------------------------------------|
B|---------------------------------------------------------------|
G|---------------------------------------------------------------|
D|----------------9-9-----------1111-----------9-9---------------|
A|--9-9-----------7-7--7-7-7-7---9-9--9-9-9-9--7-7--7-7-7-7------|
E|--7-7--7-7-7-7-------------------------------------------------|
PM       . . . .       . . . .        . . . .       . . . .

Verse:
e|-----------------------------------------|
B|-----------------------------------------|
G|-----------------------------------------|
D|-----------9-9-9-9-11111111--9-9-9-9-----|
A|--9-9-9-9--7-7-7-7--9-9-9-9--7-7-7-7-----|
E|--7-7-7-7--------------------------------|

Chorus:
e|-----------------|
B|-----------------|
G|-----------------|
D|--9-9--9-9-9-9---|
A|--9-9--9-9-9-9---|
E|--7-7--7-7-7-7---|

thats it pretty easy

Solo Pt.1
e|---------------------------------------------|
B|---------------------------------------------|
G|--7/9~~~--(9)----(9)-------(9/7~~)------(7)--|
D|---------------------------------------------|
A|---------------------------------------------|
E|---------------------------------------------|

Solo Pt. 2
e|-------------------------------------|
B|-------------------------------------|
G|--7/9--9--9/7--7--7/9--9--9/7--7777--|
D|-------------------------------------|
A|-------------------------------------|
E|-------------------------------------|

Solo Pt. 3
e|------------------------------------|
B|------------------------------------|
G|--7/9-9--7/9-9--7/9-9^10^9--7~~~~~--|
D|------------------------------------|
A|------------------------------------|
E|------------------------------------|


in the Pt. 3, the "9^10^9" means to bend
up to the "10" then release back to the
"9" in one swift move...
Tap to rate this tab
# A B C D E F G H I J K L M N O P Q R S T U V W X Y Z