Song name
# A B C D E F G H I J K L M N O P Q R S T U V W X Y Z

Funeral Dress - Terrorist Attack tab

Song: Terrorist Attack
Album: A Way of Life
Artist: Funeral Dress
Tabbed by: Taylor from the Heretix

Tuning: Standard

Intro/Verse:
e|--------------------------------|
B|--------------------------------|
G|--------------------------------|
D|---------8-8--8-7-7--7-7---5----|
A|--7-7--7-6-6--6-5-5--5-5---3-5--|
E|--5-5--5---------------------3--|

Chorus
e|-----------------|----------------|
B|-----------------|----------------|
G|-----------------|----------------|
D|---------5-------|--7-7--7-8-7-5--|
A|--7-7--7-3--5-5--|--5-5--5-6-5-3--|
E|--5-5--5----3-3--|----------------|

Bridge:
e|---------------------------------------------------------------------|
B|---------------------------------------------------------------------|
G|---------------------------------------------------------------------|
D|--------------8-7-5-5555-7-7-8--8-8--------------8-7-5-5555-7-8------|
A|--777-777-777-6-5-3-3333-5-5-6--6-6--777-777-777-6-5-3-3333-5-6-5-5--|
E|--555-555-555------------------------555-555-555----------------3-3--|

Outro:
e|--------------------------------|
B|--------------------------------|
G|--------------------------------|
D|--------------------------------|
A|--777---------777----------777--|
E|--555---------555----------555--|

Tap to rate this tab
# A B C D E F G H I J K L M N O P Q R S T U V W X Y Z