Song name
# A B C D E F G H I J K L M N O P Q R S T U V W X Y Z

Funeral Dress - Punx Alive tab

Song: Punx Alive
Artist: Funeral Dress
Album: Singalongpogopunk

Tuning: Standard

Intro:
e|--------------------------------------|
B|--------------------------------------|
G|-5/7-7-7-7--5-5-5-5--9-9-9-9--7-7-7-7-|
D|-5/7-7-7-7--5-5-5-5--9-9-9-9--7-7-7-7-|
A|-3/5-5-5-5--3-3-3-3--7-7-7-7--5-5-5-5-|
E|--------------------------------------|

Verse:
e|----------------------------------------------------------------|
B|----------------------------------------------------------------|
G|----------------------------------------------------------------|
D|-7-7-7-7-7-7-7-7--5-5-5-5-5-5--9-9-9-9-9-9-9-9--7-7-7-7-7-7-7-7-|
A|-5-5-5-5-5-5-5-5--3-3-3-3-3-3--7-7-7-7-7-7-7-7--5-5-5-5-5-5-5-5-|
E|----------------------------------------------------------------|

Chorus:
e|--------------------------------------------------------------|
B|--------------------------------------------------------------|
G|--------------------------------------------------------------|
D|--------------------------------------------------------------|
A|-4-4-4-4--7-7-7-7--4-4-4-4--9-9-9-9--4-4-4-4--7-7-7-7---7-6-5-|
E|-2-2-2-2--5-5-5-5--2-2-2-2--7-7-7-7--2-2-2-2--5-5-5-5---5-4-3-|

Bridge 
"punkalive,punxalive,punxalive,punxalive,punxalive,punxalive, PUNX NOT DEAD":
e|--------------------------------------------------------------|
B|--------------------------------------------------------------|
G|--------------------------------------------------------------|
D|--------------------------------------------------------------|
A|-4-4-4-4--7-7-7-7--4-4-4-4--9-9-9-9--4-4-4-4--7-7-7-7---7-6-5-|
E|-2-2-2-2--5-5-5-5--2-2-2-2--7-7-7-7--2-2-2-2--5-5-5-5---5-4-3-|
P.M....................................................


Tap to rate this tab
 
# A B C D E F G H I J K L M N O P Q R S T U V W X Y Z