Guitaretab - guitar tabs
Song name
# A B C D E F G H I J K L M N O P Q R S T U V W X Y Z

Funeral Dress - Cops Are Here tab

Funeral Dress (Belgian band started in 1985)
Song: Cops are Here
Album: Oi! This Is Dynamite!!!


Standard tuning: EADGBe


Intro (no distortion)
                                                             end on:
e|-----------------------------------------------------------|-----|
B|-----------------------------------------------------------|-----|
G|-----------------------------------------------------------|-----|
D|------9------------11--------------14-----------9-----(x2)-|--9--|
A|----9---9-------11----11--------14----14------9---9--------|--9--|
E|--7-------7--10----------10--12----------12--7-----7-------|--7--|


verse 1 (full distortion)
[ Tab from: http://www.guitaretab.com/f/funeral-dress/73957.html ]
e|----------------------------------------------------|
B|----------------------------------------------------|
G|--------------------5-5-5-5--7-7-7-7----------------|
D|--7-7-7-7-7-7-7-7---5-5-5-5--7-7-7-7----------------|
A|--7-7-7-7-7-7-7-7---3-3-3-3--5-5-5-5----------------|
E|--5-5-5-5-5-5-7-7-----------------------------------|


Chorus (full distortion)

e|----------------------------------------------------|
B|----------------------------------------------------|
G|--------7--9----------------------------------------|
D|--7--5--7--9--7-------------------------------------|
A|--7--5--5--7--7-------------------------------------|
E|--5--3--------5-------------------------------------|


Intro:  (x1)
Verse1: (x5)
Chorus: (x2)
Verse1: (x5)
Chorus: (x2)
Verse:  (x5)
Chorus: (x2)
Verse:  (x5)
Verse:  (x4)

Related for Cops Are Here tab