Song name
# A B C D E F G H I J K L M N O P Q R S T U V W X Y Z

Funeral Dress - Lsd tab

e|--------------------------------------|
B|--------------------------------------|
G|---------99999------------------------|x8
D|---77777-99999-99999-10101010---------|
A|---77777-77777-99999-10101010---------|
E|---55555-------77777-8-8-8-8----------|

e|----------------------------|   |--|
B|----------------------------|   |--|
G|----------------------------|x4 |--|
D|--77-55-44-55---------------|   |-7|
A|--77-55-44-55---------------|   |-7|
E|--55-33-22-33---------------|   |-5|

e|--------------------------------------|
B|--------------------------------------|
G|---------99999------------------------|x4
D|---77777-99999-99999-10101010---------|
A|---77777-77777-99999-10101010---------|
E|---55555-------77777-8-8-8-8----------|

e|----------------------------|  |--| 
B|----------------------------|  |--| 
G|----------------------------|x3|--|  
D|--77-55-44-55---------------|  |-7| 
A|--77-55-44-55---------------|  |-7| 
E|--55-33-22-33---------------|  |-5| 

e|--------------------------------------|
B|--------------------------------------|
G|---------99999------------------------|x8
D|---77777-99999-99999-10101010---------|
A|---77777-77777-99999-10101010---------|
E|---55555-------77777-8-8-8-8----------|

e|---------------------------|  |--|
B|---------------------------|  |--| 
G|---------------------------|x4|--| 
D|--77-55-44-55--------------|  |-7| 
A|--77-55-44-55--------------|  |-7| 
E|--55-33-22-33--------------|  |-5|
Tap to rate this tab
# A B C D E F G H I J K L M N O P Q R S T U V W X Y Z