Song name
# A B C D E F G H I J K L M N O P Q R S T U V W X Y Z

Funeral Dress - Join The Kids tab

-------------------------------------------------------------------------------
			     Join the Kids - Funeral Dress
-------------------------------------------------------------------------------
Band: Funeral Dress
Song: Join the Kids
Album: A Way of Life

Tabbed by: deathx88
Email: deathx88@yahoo.com

Tuning: Standard

the strum pattern may be off on some of the riffs, but they're the right notes and chords.


Riff 1
e|-----------------------------------------------|x2
B|-----------------------------------------------|
G|-----------------------------------------------|
D|--10-10-10-7-----------------------------------|
A|--8--8--8--5--------7-7-7-8------8-8-8-10------|
E|--------------------5-5-5-6------6-6-6-8-------|


Riff 2
e|-------------------------------------------------------------|x6
B|-------------------------------------------------------------|
G|-------------------------------------------------------------|
D|--10-10-10-7---7--7--7--7--7---------------------------------|
A|--8--8--8--5---5--5--5--5--5--7-7-7-8---8--8-8-8-10---10-----|
E|------------------------------5-5-5-6---6--6-6-6-8----8------|


Riff 3 (chorus) x2
e|----------------------------------------------------------------------|
B|----------------------------------------------------------------------|
G|---------------------------------------------------10b------10b-------|
D|----------------------------------------------------------------------|
A|--7--7-7--7-7-7-8--8-8--8-8-8-10--10-10--10-10-10---------------------|
E|--5--5-5--5-5-5-6--6-6--6-6-6-8---8--8---8--8--8----------------------|

e|---------------------------------------------------------------|
B|---------------------------------------------------------------|
G|---------------------------------------------------------------|
D|--------------------------------7--7-7--7-7-7-7--7-7--7-7-7----|
A|--7--7-7--7-7-7-8--8-8--8-8-8---5--5-5--5-5-5-5--5-5--5-5-5----|
E|--5--5-5--5-5-5-6--6-6--6-6-6----------------------------------|


Riff 4
e|----------------------------------|x4
B|----------------------------------|
G|----------------------------------|
D|--10-10-10-7---7------------------|
A|--8--8--8--5---5--7-7-7-8---8-----|
E|------------------5-5-5-6---6-----|


Riff 2
e|-------------------------------------------------------------|x6
B|-------------------------------------------------------------|
G|-------------------------------------------------------------|
D|--10-10-10-7---7--7--7--7--7---------------------------------|
A|--8--8--8--5---5--5--5--5--5--7-7-7-8---8--8-8-8-10---10-----|
E|------------------------------5-5-5-6---6--6-6-6-8----8------|


Riff 3 (chorus) x2
e|----------------------------------------------------------------------|
B|----------------------------------------------------------------------|
G|---------------------------------------------------10b------10b-------|
D|----------------------------------------------------------------------|
A|--7--7-7--7-7-7-8--8-8--8-8-8-10--10-10--10-10-10---------------------|
E|--5--5-5--5-5-5-6--6-6--6-6-6-8---8--8---8--8--8----------------------|

e|---------------------------------------------------------------|
B|---------------------------------------------------------------|
G|---------------------------------------------------------------|
D|--------------------------------7--7-7--7-7-7-7--7-7--7-7-7----|
A|--7--7-7--7-7-7-8--8-8--8-8-8---5--5-5--5-5-5-5--5-5--5-5-5----|
E|--5--5-5--5-5-5-6--6-6--6-6-6----------------------------------|


Riff 4
e|----------------------------------|x4
B|----------------------------------|
G|----------------------------------|
D|--10-10-10-7---7------------------|
A|--8--8--8--5---5--7-7-7-8---8-----|
E|------------------5-5-5-6---6-----|


Riff 1 (rhythm for solo)
e|-----------------------------------------------|x4
B|-----------------------------------------------|
G|-----------------------------------------------|
D|--10-10-10-7-----------------------------------|
A|--8--8--8--5--------7-7-7-8------8-8-8-10------|
E|--------------------5-5-5-6------6-6-6-8-------|


Solo
e|-----------------------------------------------------------------|
B|-----------------------------------------------------------------|
G|--------------------------------10-10------------10--10----------|
D|-----------------10------10-12--------12-10-12----------12-10----|
A|----------10--12-----12------------------------------------------|
E|--10--13---------------------------------------------------------|

e|---------------------------------------------------------------------------|
B|---------------------------------------------------------------------------|
G|------------------12-10----------------------------------------------------|
D|--12--12-10-12-10-------12-10-------12-10-------12----10------10--12-12----|
A|------------------------------12-10-------12-10-----------12---------------|
E|---------------------------------------------------------------------------|

e|--------------------------------------------------10--13--13-10----10------|
B|------------------------10-10-13-13-10--------------------------13---------|
G|--7--7--9-9-10-10-12-12---------------------10-12--------------------------|
D|----------------------------------------12---------------------------------|
A|---------------------------------------------------------------------------|
E|---------------------------------------------------------------------------|

e|--15br--13-----------------------------------------------------------------|
B|-----------15--15--15-13----15----15-15-13----13---------------------------|
G|-------------------------14----------------14----14-12-10-12-10------------|
D|----------------------------------------------------------------12-10-12---|
A|---------------------------------------------------------------------------|
E|---------------------------------------------------------------------------|


Riff 3 (chorus) x2
e|----------------------------------------------------------------------|
B|----------------------------------------------------------------------|
G|---------------------------------------------------10b------10b-------|
D|----------------------------------------------------------------------|
A|--7--7-7--7-7-7-8--8-8--8-8-8-10--10-10--10-10-10---------------------|
E|--5--5-5--5-5-5-6--6-6--6-6-6-8---8--8---8--8--8----------------------|

e|---------------------------------------------------------------|
B|---------------------------------------------------------------|
G|---------------------------------------------------------------|
D|--------------------------------7--7-7--7-7-7-7--7-7--7-7-7----|
A|--7--7-7--7-7-7-8--8-8--8-8-8---5--5-5--5-5-5-5--5-5--5-5-5----|
E|--5--5-5--5-5-5-6--6-6--6-6-6----------------------------------|


Riff 4
e|----------------------------------|x4
B|----------------------------------|
G|----------------------------------|
D|--10-10-10-7---7------------------|
A|--8--8--8--5---5--7-7-7-8---8-----|
E|------------------5-5-5-6---6-----|


e|----------------------------------|
B|----------------------------------|
G|----------------------------------|
D|--10-10-10-7----------------------|
A|--8--8--8--5----------------------|
E|----------------------------------|


| /  slide up
| \  slide down
| h  hammer-on
| p  pull-off
| ~  vibrato
| +  harmonic
| x  Mute note
| b  bend note
| br bend and release note
===============================================================================
Tap to rate this tab
# A B C D E F G H I J K L M N O P Q R S T U V W X Y Z