Guitaretab - guitar tabs
Song name
# A B C D E F G H I J K L M N O P Q R S T U V W X Y Z

Funeral Dress - Under Age tab

-------------------------------------------------------------------------------
			     Under Age - Funeral Dress
-------------------------------------------------------------------------------
Band: Funeral Dress
Song: Under Age
Album: A Way of Life

Tabbed by: deathx88
Email: deathx88@yahoo.com

Tuning: Standard

the strum pattern may be off on some of the riffs, but they're the right notes and chords.


Riff 1 (intro)
e|------------------------------------------------------------------------|x4
B|------------------------------------------------------------------------|
G|--7--7-7-x-x-x-x-7--7-7-x-x-x-x-----------------------------------------|
D|--7--7-7-x-x-x-x-7--7-7-x-x-x-x--10--10-10------------------------------|
A|--5--5-5-x-x-x-x-5--5-5-x-x-x-x--8---8--8-10--10-10-8--8-8-10--10-10----|
E|------------------------------------------8---8--8--6--6-6-8---8--8-----|


Riff 2
e|-----------------------------------------------------------------|x6
B|-----------------------------------------------------------------|
G|-----------------------------------------------------------------|
D|--7--7-7--7-7--10--10-10--10-10----------------------------------|
A|--5--5-5--5-5--8---8--8---8--8--8--8-8--8-8--10--10-10--10-10----|
E|--------------------------------6--6-6--6-6--8---8--8---8--8-----|


Riff 3 (chorus) x2
e|------------------------------------------------------------------------|
B|------------------------------------------------------------------------|
G|------------------------------------------------------------------------|
D|--7--7-7--7-7--10--10-10--10-10--12--12-12--12-12------------10--10-10--|
A|--5--5-5--5-5--8---8--8---8--8---10--10-10--10-10--10--10-10-8---8--8---|
E|---------------------------------------------------8---8--8-------------|

e|-------------------------------------12n12n12n12n12n12n----12n12n12n12n12n12n|
B|-------------------------------------12n12n12n12n12n12n----12n12n12n12n12n12n|
G|-----------------------------------------------------------------------------|
D|--7--7-7--7-7--10--10-10--10-10--12--------------------12--------------------|
A|--5--5-5--5-5--8---8--8---8--8---10--------------------10--------------------|
E|-----------------------------------------------------------------------------|


Riff 2
e|-----------------------------------------------------------------|x6
B|-----------------------------------------------------------------|
G|-----------------------------------------------------------------|
D|--7--7-7--7-7--10--10-10--10-10----------------------------------|
A|--5--5-5--5-5--8---8--8---8--8--8--8-8--8-8--10--10-10--10-10----|
E|--------------------------------6--6-6--6-6--8---8--8---8--8-----|


Riff 3 (chorus) x2
e|------------------------------------------------------------------------|
B|------------------------------------------------------------------------|
G|------------------------------------------------------------------------|
D|--7--7-7--7-7--10--10-10--10-10--12--12-12--12-12------------10--10-10--|
A|--5--5-5--5-5--8---8--8---8--8---10--10-10--10-10--10--10-10-8---8--8---|
E|---------------------------------------------------8---8--8-------------|

e|-------------------------------------12n12n12n12n12n12n----12n12n12n12n12n12n|
B|-------------------------------------12n12n12n12n12n12n----12n12n12n12n12n12n|
G|-----------------------------------------------------------------------------|
D|--7--7-7--7-7--10--10-10--10-10--12--------------------12--------------------|
A|--5--5-5--5-5--8---8--8---8--8---10--------------------10--------------------|
E|-----------------------------------------------------------------------------|



Bridge
e|---------------------------------------------------------------------------|
B|---------------------------------------------------------------------------|
G|--7-----------------------------------7------------------------------------|
D|--7-----------------------------------7------------------------------------|
A|--5-----------------------------------5------------------------------------|
E|---------------------------------------------------------------------------|

[ Tab from: http://www.guitaretab.com/f/funeral-dress/98654.html ]
Riff 2 (rhythm for solo)
e|-----------------------------------------------------------------|x4
B|-----------------------------------------------------------------|
G|-----------------------------------------------------------------|
D|--7--7-7--7-7--10--10-10--10-10----------------------------------|
A|--5--5-5--5-5--8---8--8---8--8--8--8-8--8-8--10--10-10--10-10----|
E|--------------------------------6--6-6--6-6--8---8--8---8--8-----|


Solo
e|-----------------------------------------------------------------|
B|--12----12----12-----12----12----12----12----12-----12----10-----|
G|--12b---12b---12b----12b---12b---12b---12b---12b----12b---10-----|
D|-----------------------------------------------------------------|
A|-----------------------------------------------------------------|
E|-----------------------------------------------------------------|

e|--------------------------------------------------|
B|----------10----------10--12----12---10-----------|
G|----------10----------10--12b---12---10-----------|
D|--12--------------12---------------------12-------|
A|--------------------------------------------------|
E|--------------------------------------------------|

e|---------------------------------------------------------------------------|
B|--------------------10----------------10----------------10-----------------|
G|--------------------10----------------10----------------10-----------------|
D|--10--12-12--12-12------12-12--12-12------12-12--12-12------12-10----------|
A|------------------------------------------------------------------12-10-8--|
E|---------------------------------------------------------------------------|

e|------------------------------------------------------|
B|--12----10--------------------------------------------|
G|--12br--10--------------------------------------------|
D|------------12---10-------------10-------10-12~~------|
A|----------------------12--10-12-------12--------------|
E|------------------------------------------------------|


Riff 3 (chorus) x2
e|------------------------------------------------------------------------|
B|------------------------------------------------------------------------|
G|------------------------------------------------------------------------|
D|--7--7-7--7-7--10--10-10--10-10--12--12-12--12-12------------10--10-10--|
A|--5--5-5--5-5--8---8--8---8--8---10--10-10--10-10--10--10-10-8---8--8---|
E|---------------------------------------------------8---8--8-------------|

e|-------------------------------------12n12n12n12n12n12n----12n12n12n12n12n12n|
B|-------------------------------------12n12n12n12n12n12n----12n12n12n12n12n12n|
G|-----------------------------------------------------------------------------|
D|--7--7-7--7-7--10--10-10--10-10--12--------------------12--------------------|
A|--5--5-5--5-5--8---8--8---8--8---10--------------------10--------------------|
E|-----------------------------------------------------------------------------|


Riff 2
e|-----------------------------------------------------------------|x6
B|-----------------------------------------------------------------|
G|-----------------------------------------------------------------|
D|--7--7-7--7-7--10--10-10--10-10----------------------------------|
A|--5--5-5--5-5--8---8--8---8--8--8--8-8--8-8--10--10-10--10-10----|
E|--------------------------------6--6-6--6-6--8---8--8---8--8-----|


Riff 3 (chorus) x4
e|------------------------------------------------------------------------|
B|------------------------------------------------------------------------|
G|------------------------------------------------------------------------|
D|--7--7-7--7-7--10--10-10--10-10--12--12-12--12-12------------10--10-10--|
A|--5--5-5--5-5--8---8--8---8--8---10--10-10--10-10--10--10-10-8---8--8---|
E|---------------------------------------------------8---8--8-------------|

e|-------------------------------------12n12n12n12n12n12n----12n12n12n12n12n12n|
B|-------------------------------------12n12n12n12n12n12n----12n12n12n12n12n12n|
G|-----------------------------------------------------------------------------|
D|--7--7-7--7-7--10--10-10--10-10--12--------------------12--------------------|
A|--5--5-5--5-5--8---8--8---8--8---10--------------------10--------------------|
E|-----------------------------------------------------------------------------|



e|-------------|
B|-------------|
G|--7----------|
D|--7----------|
A|--5----------|
E|-------------|


| /  slide up
| \  slide down
| h  hammer-on
| p  pull-off
| ~  vibrato
| n  natural harmonic
| x  Mute note
| b  bend note
| br bend and release note
===============================================================================
Related for Under Age tab