Song name
# A B C D E F G H I J K L M N O P Q R S T U V W X Y Z

Funeral For A Friend - All Hands On Deck Pt 2 Open Water tab

-------------------------------------------------------------------------------
	 All Hands On Deck Pt 2 Open Water - Funeral For A Friend
-------------------------------------------------------------------------------
Tabbed by: slurms
Email: slurms.mckenzie@hotmail.com

Tuning:Db Ab Db Gb Bb Eb

Verse - Awake, I Am Awake...       \/ 2 Guitars here (harmonised) \/ all x2
eb|------------------------------|-----------------------------------------|
Bb|------------------------------|-----------------------------------------|
Gb|--7-7---5/7---9---5-5/7-------|---------------9~--7~---3~---------------|
Db|--x-x---x-x---x---x-x-x----x3-|-Then play----12~--9~---8~---------------|
Ab|--5-5---3/5---7---3-3/5-------|-----------------------------------------|
Db|--0-0---0-0---0---0-0-0-------|-----------------------------------------|




Chorus - Deep Water ... (Rhythm Guitar) x2
eb|---------------------------------------------------------------------------|
Bb|---------------------------------------------------------------------------|
Gb|-7-7-7-7-7-7-7-7-7-7-7-7-7-7-7-7-------------------7-7-7-7-7-7-7-7---------|
Db|-7-7-7-7-7-7-7-7-7-7-7-7-7-7-7-7--5-5-5-5-5-5-5-5--7-7-7-7-7-7-7-7---------|
Ab|-5-5-5-5-5-5-5-5-5-5-5-5-5-5-4-4--5-5-5-5-5-5-5-5--5-5-5-5-5-5-5-5---------|
Db|-0-0-0-0-0-0-0-0-0-0-0-0-0-0-0-0--5-5-5-5-5-5-5-5--0-0-0-0-0-0-0-0---------|

Chorus - Deep Water ... (Lead Guitar) x2
eb|---10-----------10--------------------10--10-------------10----------------|
Bb|-----10-----------10----------------10--10--10--------10-------------------|
Gb|-7------------7-------------------12---------------------------------------|
Db|---------------------------------------------------12----------------------|
Ab|---------------------------------------------------------------------------|
Db|---------------------------------------------------------------------------|




Verse - Showing Teeth ...       \/ 2 Guitars here (harmonised) \/ all x2
eb|------------------------------|-----------------------------------------|
Bb|------------------------------|-----------------------------------------|
Gb|--7-7---5/7---9---5-5/7-------|---------------9~--7~---3~---------------|
Db|--x-x---x-x---x---x-x-x----x3-|-Then play----12~--9~---8~---------------|
Ab|--5-5---3/5---7---3-3/5-------|-----------------------------------------|
Db|--0-0---0-0---0---0-0-0-------|-----------------------------------------|



Chorus - Deep Water ... (Rhythm Guitar) x4
eb|---------------------------------------------------------------------------|
Bb|---------------------------------------------------------------------------|
Gb|-7-7-7-7-7-7-7-7-7-7-7-7-7-7-7-7-------------------7-7-7-7-7-7-7-7---------|
Db|-7-7-7-7-7-7-7-7-7-7-7-7-7-7-7-7--5-5-5-5-5-5-5-5--7-7-7-7-7-7-7-7---------|
Ab|-5-5-5-5-5-5-5-5-5-5-5-5-5-5-4-4--5-5-5-5-5-5-5-5--5-5-5-5-5-5-5-5---------|
Db|-0-0-0-0-0-0-0-0-0-0-0-0-0-0-0-0--5-5-5-5-5-5-5-5--0-0-0-0-0-0-0-0---------|

Chorus - Deep Water ... (Lead Guitar) x4
eb|---10-----------10--------------------10--10-------------10----------------|
Bb|-----10-----------10----------------10--10--10--------10-------------------|
Gb|-7------------7-------------------12---------------------------------------|
Db|---------------------------------------------------12----------------------|
Ab|---------------------------------------------------------------------------|
Db|---------------------------------------------------------------------------|




Interlude - And I`m Too Far Gone x4
eb|------------------|-----------------------------------|
Bb|------------------|-----------------------------------|
Gb|--------12-11-----|-----------------------------------|
Db|-0--0----x-x---x4-|--7-7-7-7-7-7-7-7-5-5-5-5-5-5-5-5--|
Ab|-0--0---10\9------|--7-7-7-7-7-7-7-7-5-5-5-5-5-5-5-5--|
Eb|-0--0-------------|--7-7-7-7-7-7-7-7-5-5-5-5-5-5-5-5--|




Chorus - No Lyrics (Rhythm Guitar) x2
eb|---------------------------------------------------------------------------|
Bb|---------------------------------------------------------------------------|
Gb|-7-7-7-7-7-7-7-7-7-7-7-7-7-7-7-7-------------------7-7-7-7-7-7-7-7---------|
Db|-7-7-7-7-7-7-7-7-7-7-7-7-7-7-7-7--5-5-5-5-5-5-5-5--7-7-7-7-7-7-7-7---------|
Ab|-5-5-5-5-5-5-5-5-5-5-5-5-5-5-4-4--5-5-5-5-5-5-5-5--5-5-5-5-5-5-5-5---------|
Db|-0-0-0-0-0-0-0-0-0-0-0-0-0-0-0-0--5-5-5-5-5-5-5-5--0-0-0-0-0-0-0-0---------|

Chorus - No Lyrics (Lead Guitar) x2
eb|---10-----------10--------------------10--10-------------10----------------|
Bb|-----10-----------10----------------10--10--10--------10-------------------|
Gb|-7------------7-------------------12---------------------------------------|
Db|---------------------------------------------------12----------------------|
Ab|---------------------------------------------------------------------------|
Db|---------------------------------------------------------------------------|




Chorus - Waves Crashed ... (Rhythm Guitar) x2
eb|---------------------------------------------------------------------------|
Bb|---------------------------------------------------------------------------|
Gb|-7-7-7-7-7-7-7-7-7-7-7-7-7-7-7-7-------------------7-7-7-7-7-7-7-7---------|
Db|-7-7-7-7-7-7-7-7-7-7-7-7-7-7-7-7--5-5-5-5-5-5-5-5--7-7-7-7-7-7-7-7---------|
Ab|-5-5-5-5-5-5-5-5-5-5-5-5-5-5-4-4--5-5-5-5-5-5-5-5--5-5-5-5-5-5-5-5---------|
Db|-0-0-0-0-0-0-0-0-0-0-0-0-0-0-0-0--5-5-5-5-5-5-5-5--0-0-0-0-0-0-0-0---------|

Chorus - Waves Crashed ... (Lead Guitar) x2
eb|---10-----------10--------------------10--10-------------10----------------|
Bb|-----10-----------10----------------10--10--10--------10-------------------|
Gb|-7------------7-------------------12---------------------------------------|
Db|---------------------------------------------------12----------------------|
Ab|---------------------------------------------------------------------------|
Db|---------------------------------------------------------------------------|

| /  slide
| \  slide
| h  hammer-on
| p  pull-off
| ~  vibrato
| +  harmonic
| x  Mute note
===============================================================================
Tap to rate this tab
# A B C D E F G H I J K L M N O P Q R S T U V W X Y Z