Song name
# A B C D E F G H I J K L M N O P Q R S T U V W X Y Z

Funeral For A Friend - Building tab

Song: Building
Artist: Funeral for a Friend
Album: Memory and Humanity

Tuning: Drop C#

Intro
Eb|-------------------------------------------------------------------|
Bb|--------5---------------5---------------5-------7-------4----------|
Gb|----6-------6---6---6-------6---6---4-------4-------4-------4---4--|
Db|--6---6---6---6---7---7---7---7---4---4---4---4---4---4---4---4----|
Ab|-------------------------------------------------------------------|
Db|-------------------------------------------------------------------|

Eb|------------------------------------------------------|
Bb|--------5---------------5---------------5-------7~----|
Gb|----6-------6---6---6-------6---6---4-------4~--------|
Db|--6---6---6---6---7---7---7---7---4---4---4---4~------|
Ab|------------------------------------------------------|
Db|------------------------------------------------------|


Verse 1
Eb|-----------0--------------------0------------------0----------|
Bb|----------------------0----0---------------0------------------|
Gb|-----------------------------------------------------------8--|
Db|-----11------11--------------------------------9-------9------|
Ab|--11----11------11h12---12---12---12-11h12---9---9---9---9----|
Db|--------------------------------------------------------------|

Eb|-------------------|
Bb|--------0----------|
Gb|-------------------|
Db|----9-------9---9--|
Ab|--9---9---9---9----|
Db|-------------------|x3

Eb|------------------------------------------------------|
Bb|------------------------------------------------------|
Gb|--------8-------9-----------------------8-------9~----|
Db|------------------------9-----------------------------|
Ab|----7-------7-------7-------7---7---7-------7~--------|
Db|--7---7---7---7---7---7---7---7---7---7---7---7~------|


Chorus 1
(These are just the chords, listen to the track for strumming patterns.
Eb|--0--0--0----0--0--0------|
Bb|--0--0--0----0--0--0------|
Gb|--4--6--9----8--9--2------|
Db|--4--6--9----9--9--2------|
Ab|--2--4--7----6--7--0------|
Db|--------------------------|


Verse 2
(Repeat Verse 1)

Chorus 2 & 3
(Repeat Chorus 1
Tap to rate this tab
 
# A B C D E F G H I J K L M N O P Q R S T U V W X Y Z