Guitaretab - guitar tabs
Song name
# A B C D E F G H I J K L M N O P Q R S T U V W X Y Z

Funeral For A Friend - Pirate Song tab

Intro: Guitar 1.
|------------------------------------------------------------------------------------|
|------------------------------------------------------------------------------------|
|------------------------------------------------------------------------------------|
|------------------------------------------------------------------------------------|
|-------------7------7----------------------7-----------------------7----------------|
|-----7--7------7--------7---7--7--7--7-------7---7--7--7--7----------7--7--7--7--7--|

|------------------------------------------------------------------------------------------------|
|------------------------------------------------------------------------------------------------|
|------------------------------------------------------------------------------------------------|
|------------------------------------------------------------------------------------------------|
|-----------------------7------------------------9-----------------------9--------------------9--|
|-----7--7--7--7--7---------7--7--7--7--7---------7--7--7--7--7--------7--7--7--7--7-------------|

[ Tab from: http://www.guitaretab.com/f/funeral-for-a-friend/155059.html ]
Intro 2: Darran
|---12-----------10-h-12-p-10-------12---------14--12---------|--------------7---------------------|
|--------12-------------------------9--------12--------------12----|------7----------7-------------|
|----------------------------------------------------------------------|-9------9-----------9(X5--|
|----------------------------------------------------------------------|---------------------------|
|----------------------------------------------------------------------|---------------------------|
|----------------------------------------------------------------------|---------------------------|

Verse: Both guitars.
|-----------------------------|
|-----------------------------|
|-------9-------7-------------|
|-------9-------7-----7-------|
|-------7-------5-----7-------|
|----------------------5------|


|----12-p-10-p-0--------12-p-10-p-0--------------|
|------------------------------------------------|
|------------------------------------------------|
|------------------------------------------------|
|------------------------------------------------|
|------------------------------------------------|


|--------------------------------------------------------------------------|
|--------------------------------------------------------------------------|
|--------------------------------------------------------------------------|
|---------------------------------------------9----------------------------|
|----7----------------------------7-------------7--------------------------|
|--------7-----5--7--5---0-----------7------------7------------------------|


|---12-----------10-h-12-p-10-------------12------------14--12---------|
|--------12-------------------------9--------12----------------12------|
|----------------------------------------------------------------------|
|----------------------------------------------------------------------|
|----------------------------------------------------------------------|
|----------------------------------------------------------------------|
Related for Pirate Song tab