Song name
# A B C D E F G H I J K L M N O P Q R S T U V W X Y Z

Funeral For A Friend - One For The Road tab

Played in
	Drop Db

	Db Ab Db Gb Bb eb
	Yes, I didn't use the Db. So you don't need to do that.

--------------------------------------------

# tabbed by 'Amnon'
#

# SONG by 'Funeral For A Friend'

# ALBUM 
# 'Tales Don't Tell Themselves'

# SONG
# 'One For The Road'

--------------------------------------------

Gtr 1 (clean/over)
|-7---------|----------|
|-9-10-10-9-|----------|
|-9-9--7--7-|-9-11-7-7-|
|-9-7--7--7-|-9-11-7-7-|
|-7-7--7--7-|-7-9--5-5-|
|-----------|----------|

Gtr 2 (over)
|-----------|-----------------------------------------------------------------|
|-----------|-----------------------------------------------------------------|
|-----------|-------9---------------------------------9--------------9999-----|
|-----------|-----7---9-7--------7-bend9-7----------7---9-7--------7------9-7-|
|-----------|-7-9---------9--7-9-----------9-7--7-9---------9--7-9------------|
|-----------|-----------------------------------------------------------------|

|-----------|------------------------------------------------------------|
|-----------|------------------------------------------------------------|
|-----------|-------9---------------------------------9------------------|
|-----------|-----7---9-7--------7-bend9-7----------7---9-7--------6-7-9-|
|-----------|-7-9---------9--7-9-----------9-7--7-9---------9--7-9-------|
|-----------|------------------------------------------------------------|

0:27

Gtr 1 (clean)
|----------|
|-9-7-10---|
|-9-6-9----|
|-9-4-7----|
|-7-4-7----|
|----------|

0:50

Gtr 2 (over)
|-12-|
|-10-|
|-11-|	Listen to the Song how to play this. 
|----|	This is not played as a chord. lol
|----|
|----|


0:55

Gtr 1 (over)
|---------------------------------|
|---------------------------------|
|-11-7-9-9---14-13-9-9---11-7-9-9-|
|-11-7-9-9---14-13-9-9---11-7-9-9-|
|-9--5-7-7---12-11-7-7---9--5-7-7-|
|---------------------------------|

1:12

Gtr 2 (over)
|-----------|-----------------------------------------------------------------|
|-----------|-----------------------------------------------------------------|
|-----------|-------9---------------------------------9--------------9999-----|
|-----------|-----7---9-7--------7-bend9-7----------7---9-7--------7------9-7-|
|-----------|-7-9---------9--7-9-----------9-7--7-9---------9--7-9------------|
|-----------|-----------------------------------------------------------------|

|-----------|------------------------------------------------------------|
|-----------|------------------------------------------------------------|
|-----------|-------9---------------------------------9------------------|
|-----------|-----7---9-7--------7-bend9-7----------7---9-7--------6-7-9-|
|-----------|-7-9---------9--7-9-----------9-7--7-9---------9--7-9-------|
|-----------|------------------------------------------------------------|

As you can maybe see, the song repeats itself at 1:12.........

Outro ( Girls, Scream As Loud As You Can !! )
2:40

Gtr 2 (over)
|------------------|
|-9-10-9-10-12-----|
|--------------999-| I didn't count the repeats of course. rofl ;-)
|------------------|
|------------------|
|------------------|

3:15

Gtr 1 (over)
|---------------------|
|---------------------|
|-9-9-7-7---9-9-11-11-|
|-9-9-7-7---9-9-11-11-| Also played several times. 
|-7-7-5-5---7-7-9--9--| Gtr 1 always makes rhythm, ay! 
|---------------------|

3:37

Gtr 2 (over)
|-10-9------------------------|
|------12-10-9-10-9-10-9-10---|
|---------------------------9-| You need to pull the strings! 
|-----------------------------| Didnt tab the signs :)
|-----------------------------| Oh and play the last note in 
|-----------------------------| between if you can or like.

# Tabbed By Amnon - 2007 - Please feel free to comment this Tab - THX
Tap to rate this tab
# A B C D E F G H I J K L M N O P Q R S T U V W X Y Z