Song name
# A B C D E F G H I J K L M N O P Q R S T U V W X Y Z

Funeral For A Friend - Constant Illuminations tab

----------------------------------------------------------------------------
                Constant Illuminations - Funeral For a Friend
----------------------------------------------------------------------------

Song: Constant Illuminations
Band: Funeral For a Friend
Album: Memory and Humanity

Tabbed by: Paul McDermott
Another great song off their new album, hopefully i'll be able to work my way through 
the songs, did the tab for "to die like mouchette" as well.

Tuning: Dropped-D down half-a-step

Intro (Bass)
eb|------------------------------------------------------|
Bb|------------------------------------------------------|
Gb|------------------------------------------------------|
Db|------------------------------------------------------|
Ab|-----3-3-0----3---3/5-------3-3-0----3---3/5----------|
Db|-0-0--------0---0------0-0~--------0---0-----4-5-4-0--|

eb|-----------------------------------------------------|
Bb|-----------------------------------(guitar comes in)-|
Gb|--------------------------------------5h7-5----------|
Db|--------------------------------------------5h7-5----|
Ab|-----3-3-0----3---3/5-------3-3-0-----------------5--|
Db|-0-0--------0---0------0-0~--------0-----------------|

Verse 1 (Both Guitars)
eb|-----------------------------------------------------|
Bb|-----------------------------------------------------|
Gb|----5p2--------5p2-5h7------5p2-------5p2-5h7--------|
Db|--------5h7---------------------5h7----------4h5p4---|
Ab|---------------------------------------------------5-|
Db|--0----------0--------0-0~----------0----------------|

eb|-----------------------------------------------------|
Bb|-----------------------------------------------------|
Gb|----5p2--------5p2-5h7------5p2-------5h7-5----------|
Db|--------5h7---------------------5h7---------5h7-5----| Repeat Verse
Ab|--------------------------------------------------5--|
Db|--0----------0--------0-0~----------0----------------|

 Chorus
 Guitar 1
(Part 1)                            (Part 2)
eb|------------------------    eb|-------------------------------|
Bb|-------------10~--------    Bb|-------------------------------|
Gb|--9~--------------------x7  Gb|--9~----------2h5--------------|
Db|------12~---------------    Db|------12~---------5h7-4h5p4----|
Ab|------------------------    Ab|----------------------------5~-|
Db|------------------------    Db|-------------------------------|

 Guitar 2
(Part 1)
eb|---------------------------------------|
Bb|---------------------------------------|
Gb|---------------------------------------|
Db|00000000-33333333-88888888-55555555-8\-|
Ab|00000000-33333333-88888888-55555555-8\-|
Db|00000000-33333333-88888888-55555555-8\-|

 (Part 2)
eb|-------------------------------------------------|
Bb|--------------------------------2h5--------------|
Gb|------------------------------------5h7-4h5p4----|
Db|00000000-33333333-88888888-5555---------------5~-|
Ab|00000000-33333333-88888888-5555------------------|
Db|00000000-33333333-88888888-5555------------------|

Verse 2 (play intro including guitar bit then play verse but only once)

Chorus (same as first chorus but just play part one twice)

Middle 8
Both Guitars
eb|-----------------------------------|
Bb|-----------------------------------|
Gb|-----------------------------------|
Db|-----------------------------------| x8
Ab|--6-5-4-5-4-3-5-4-3-4-3-2-5-4-5-6--|
Db|- 6-5-4-------5-4-3-------5-4-5-6--|

Chorus (same as second chorus but starts with the power chord slide from the 8th fret)

Outro
Both Guitars
eb|------------------------|
Bb|------------------------|
Gb|------------------------|
Db|------------------------| x4
Ab|-------8\---3h5---8p5---|
Db|-3-4-5-8\-0-----0-----0-|

eb|--------------------------|
Bb|--------------------------|
Gb|--------------------------|
Db|--------------------------| x4
Ab|-3-4-5-8\-0--3h5-0--8p5-0-|
Db|-3-4-5-8\-0------0------0-|

eb|-----------------------------|
Bb|-----------------------------|
Gb|-----------------------------|
Db|-----------------------------| x4
Ab|-3-4-5-8\-00--3h5-00--8p5-00-|
Db|-3-4-5-8\-00------00------00-|
             xx      xx      xx

eb|-------|
Bb|-------|
Gb|-------|
Db|-------|  End
Ab|-3-4-5-|
Db|-3-4-5-|


| /  slide up
| \  slide down
| h  hammer-on
| p  pull-off
| ~  vibrato
| +  harmonic
| x  Mute note
============================================================================
Tap to rate this tab
# A B C D E F G H I J K L M N O P Q R S T U V W X Y Z