Song name
# A B C D E F G H I J K L M N O P Q R S T U V W X Y Z

Funeral For A Friend - This Letter tab

Ive noticed that the other This letter tab outros are nowhere near close to the original 
I've been playing them wrong!) so I decided have a stab at it. This is my first tab! It 
not completely accurate, and any suggestions would be great. Enjoy! (ericduxbury@hotmail.com)


2:27

I wished I was dead...

|-----------------------------------------------------------------|
|-----------------------------------------------7-----------------|
|---11---------12---------9----------7----------7-----------------|
|---9----x5----9----x5----x----x5----5----x5----5---x5------------|
|---9----------9----------7----------5----------5-----------------|
|---9----------9----------0----------5----------5-----------------|

Play this 4 times


Then...


|----------------------------------------------------------------------|
|----------------------------------------------------------------------|
|---11------------7------------7/9----------9------------11------------|
|---9-----x5------x----x4------x/x----x5----7----x2------7-----x3------|
|---9-------------5------------5/7----------7------------7-------------|
|---9-------------0------------0/0----------7------------7-------------|

|----------------------|
|---7------------------|
|---7------------------|
|---5------x10---------|
|---5------------------|
|---5------------------|

Play this 4 times, and then Finish on...


|-----------------|
|---7-------------|
|---7-------------|
|---7-------------|
|---5-------------|
|---5-------------|
Tap to rate this tab
 
# A B C D E F G H I J K L M N O P Q R S T U V W X Y Z