Funeral For A Friend - Storytelling tab

Funeral For a Friend - Storytelling

Tuning - Drop C#

Great band, great song whats more too say? 

Pretty sure this is correct, no actual timing in tabs, but easy enough to pick up
from listening to the song. Enjoy


	Clean 

	Guitar 1 - Intro

D# |----------------------------------|
A# |----------------------------------|
F# |-55-555-555-555-555-555-5-55------|
C# |-33-333-333-333-355-555-5-22-55---|		X2
G# |-33-333-333-333-355-555-5-00-22---|
C# |-33-333-333-333-355-555-5---------|



	Distort 

	Guitar 1 - Chorus

D# |-------------------------------------|
A# |-------------------------------------|
F# |-55555555555555-5555555555-5555------|
C# |-33333333333333-5555555555-2222-5555-|	X3
G# |-33333333333333-5555555555-0000-2222-|
C# |-33333333333333-5555555555-----------|



D# |-------------------------------------|
A# |-------------------------------------|
F# |-55555555555555-5555555555-555555555-|
C# |-33333333333333-5555555555-555555555-|	X1
G# |-33333333333333-5555555555-555555555-|
C# |-33333333333333-5555555555-555555555-|
			       .........	



	Guitar 2 - Chorus

D# |---------------------------------------|
A# |---------------------------------------|
F# |-17171717171717-1616161616-121212101010|
C# |-XXXXXXXXXXXXXX-XXXXXXXXXX-XXXXXXXXXXXX|
G# |-15151515151515-1414141414-101010-8-8-8|
C# |---------------------------------------|



D# |---------------------------------------|
A# |---------------------------------------|
F# |-17171717171717-1616161616-171717191919|
C# |-XXXXXXXXXXXXXX-XXXXXXXXXX-XXXXXXXXXXXX|
G# |-15151515151515-1414141414-151515171717|
C# |---------------------------------------|



	Guitar 2 - Verse


D# |-----------------------|
A# |-----------------------|
F# |----5-4---5-4---4h5555-|
C# |-----------------------|
G# |-33-----3-----3--------|
C# |-----------------------|
     ..     .     .



D# |---------------------------------------------|
A# |---------------------------------------------|
F# |----5-4---5-4---4h5555----5-4---5-4---4h5555-|
C# |---------------------------------------------|
G# |-33-----3-----3--------00-----0-----0--------|
C# |---------------------------------------------|
     ..     .     .	   ..     .     .


	Guitar 1

D# |----------------------------------------------|
A# |----------------------------------------------|
F# |-55555555555555555555-99999999999999999999999-|
C# |----------------------------------------------|
G# |-33333333333333333333-77777777777777777777777-|
C# |----------------------------------------------|



	Guitar 2

D# |---------------------------------------------|
A# |---------------------------------------------|
F# |----5-4---5-4---4h5555----5-4---5-4---4h5555-|
C# |-00-----0-----0--------22-----3-----3--------|
G# |---------------------------------------------|
C# |---------------------------------------------|
     ..     .     .	   ..     .     .



	Guitar 1

D# |---------------------------------------------|
A# |---------------------------------------------|
F# |-1010101010101010101010-999999999999-1010-77-|
C# |---------------------------------------------|
G# |-8-8-8-8-8-8-8-8-8-8-8--777777777777-8-8--55-|
C# |---------------------------------------------|


D# |---------------------------------------------|
A# |---------------------------------------------|
F# |----5-4---5-4---4h5555----5-4---5-4---4h5555-|
C# |---------------------------------------------|
G# |-33-----3-----3--------00-----0-----0--------|
C# |---------------------------------------------|
     ..     .     .	   ..     .     .


	Guitar 1

D# |----------------------------------------------|
A# |----------------------------------------------|
F# |-55555555555555555555-99999999999999999999999-|
C# |----------------------------------------------|
G# |-33333333333333333333-77777777777777777777777-|
C# |----------------------------------------------|



	Guitar 2

D# |---------------------------------------------|
A# |---------------------------------------------|
F# |----5-4---5-4---4h5555----5-4---5-4---4h5555-|
C# |-00-----0-----0--------22-----3-----3--------|
G# |---------------------------------------------|
C# |---------------------------------------------|
     ..     .     .	   ..     .     .



	Guitar 1

D# |-----------------------------------------------------|
A# |-----------------------------------------------------|
F# |-101010101010101010101010-99999999-10101010-12121212-|
C# |-----------------------------------------------------|
G# |-8-8-8-8-8-8-8-8-8-8-8-8--77777777--8-8-8-8-10101010-|
C# |-----------------------------------------------------|




	Chorus



	Verse



	Chorus



	Guitars 1 & 2 - Bride

D# |------------------------------------------------------------|
A# |------------------------------------------------------------|
F# |-------------------------------2-22-2-22-2-22---------------|X2 with 
C# |-3-33-3-33-3-33-5-55-5-55-5-55-2-22-2-22-2-22-5-55-5-55-777-|   palm 
G# |-3-33-3-33-3-33-5-55-5-55-5-55-0-00-0-00-0-00-2-22-3-33-555-|   muting,
C# |-3-33-3-33-3-33-5-55-5-55-5-55------------------------------|
       ..   ..        ..   ..        ..   ..        ..   ..


	Guitar 2 - solo	

D# |------------------------------------------------------------|
A# |------------------------------------------------------------|
F# |-------------------------------2-22-2-22-2-22---------------|X2 
C# |-3-33-3-33-3-33-5-55-5-55-5-55-2-22-2-22-2-22-5-55-5-55-777-|	
G# |-3-33-3-33-3-33-5-55-5-55-5-55-0-00-0-00-0-00-2-22-3-33-555-|
C# |-3-33-3-33-3-33-5-55-5-55-5-55------------------------------|




	Guitar 1 - solo

D# |------------------------------------17---------------12-------------|
A# |-13-12-12h13p12h1315-13--12h13p12h13---13-12h13p12h13---13-12-13-12-|
F# |--------------------------------------------------------------------|
C# |--------------------------------------------------------------------|
G# |--------------------------------------------------------------------|
C# |--------------------------------------------------------------------|


	Guitar 2 

D# |------------------------------------------|
A# |------------------------------------------|
F# |-----------------2------------------------|
C# |-3-------5-------2-------5----5-----7-----|
G# |-3-------5-------0-------2----3-----5-----|
C# |-3-------5--------------------------------|



	Guitar 1

D# |-----------------15------12---------------|
A# |-13------12-------------------13-12-13-13-|
F# |------------------------------------------|
C# |------------------------------------------|
G# |------------------------------------------|
C# |------------------------------------------|


        Clean 

	Guitar 2 - outro Clean

D# |-----------------------------------------|
A# |-----------------------------------------|
F# |-----------------------------------------|
C# |---3--3-----5--5-----7--7-----9---10-----|		X2
G# |--3--3--3--5--5--5--7--7--7--10--10---12-|
C# |-3--3--3--5--5--5--7--7--7--9---10---12--|


        Clean

	Guitar 1 - outro 

D# |---12----12--------10----10-------|
A# |-----13----13--13----13----13--13-|
F# |-12----12----12--------12----12---|			X4
C# |----------------------------------|
G# |----------------------------------|
C# |----------------------------------|




		End
Tap to rate this tab
 
# A B C D E F G H I J K L M N O P Q R S T U V W X Y Z