Song name
# A B C D E F G H I J K L M N O P Q R S T U V W X Y Z

Funeral For A Friend - Drive tab

This tab is the part of Kris Coombs-Roberts. (Lead Guitar).. i know that my tab is 
because i watched him play the song.. enjoi!!!

Tuning: Half Step Down

Order of Song:
1. Verse x1
2. Chorus x2
3. Verse x1
4. Chorus x2
5. Solo x2
6. Solo Part two x1
7. Chorus x2
8. Solo x2
9. Outro x8

Verse: play once

eb|-2---3--2---3--5---3--5---3--2---3--2---3--5---3--5---3-|
Bb|---3------3------3------3------3------3------3------3---|
Gb|--------------------------------------------------------|
db|--------------------------------------------------------|
Ab|--------------------------------------------------------|
Db|--------------------------------------------------------|

Chorus: Play twice

eb|------------------------------------------------------------------------|
Bb|-------4-----------------4-----------7-------7-------7-------7-------7--|
Gb|-5--h7----7--5--5--5--h7----7---5--5----5--5----5--5----5--5----5--5----|
db|------------------------------------------------------------------------|
Ab|------------------------------------------------------------------------|
Db|------------------------------------------------------------------------|

eb|-------------------------------------------------------------------------|
Bb|-----------7------7-------7-------7-------7------------------------------|
Gb|-5--5--5-----5--5----5--5----5--5----5--5----5--5--5---------------------|
db|-------------------------------------------------------------------------|
Ab|-------------------------------------------------------------------------|
Db|-------------------------------------------------------------------------|

Verse: Play once

eb|-2---3--2---3--5---3--5---3--2---3--2---3--5---3--5---3-|
Bb|---3------3------3------3------3------3------3------3---|
Gb|--------------------------------------------------------|
db|--------------------------------------------------------|
Ab|--------------------------------------------------------|
Db|--------------------------------------------------------|

Chorus: Play twice

eb|------------------------------------------------------------------------|
Bb|-------4-----------------4-----------7-------7-------7-------7-------7--|
Gb|-5--h7----7--5--5--5--h7----7---5--5----5--5----5--5----5--5----5--5----|
db|------------------------------------------------------------------------|
Ab|------------------------------------------------------------------------|
Db|------------------------------------------------------------------------|

eb|-------------------------------------------------------------------------|
Bb|-----------7------7-------7-------7-------7------------------------------|
Gb|-5--5--5-----5--5----5--5----5--5----5--5----5--5--5---------------------|
db|-------------------------------------------------------------------------|
Ab|-------------------------------------------------------------------------|
Db|-------------------------------------------------------------------------|

Solo: Play twice

eb|-15--10----14--10----15--10----------------------15--10----14--10--------|
Bb|-----------------------------------------12--15--------------------------|
Gb|--------12--------12--------12--12--h14-----------------12--------12-----|
db|-------------------------------------------------------------------------|
Ab|-------------------------------------------------------------------------|
Db|-------------------------------------------------------------------------|

eb|-15--10------------------------------------------------------------------|
Bb|----------------------12--15---------------------------------------------|
Gb|---------12--12--h14-----------------------------------------------------|
db|-------------------------------------------------------------------------|
Ab|-------------------------------------------------------------------------|
Db|-------------------------------------------------------------------------|

Solo part two: play once

eb|-------------------------------------------------------------------------|
Bb|----------------------------------------------13--12-------------13--12--|
Gb|-12--12--h14--14--12--12--12--h14--14--12--12--------14--12--12----------|
db|-------------------------------------------------------------------------|
Ab|-------------------------------------------------------------------------|
Db|-------------------------------------------------------------------------|

eb|-------------------------------------------------------------------------|
Bb|------------------------------------------------------13--12-------------|
Gb|-14--12--12--12--12--h14--14--12--12--12--h14--14--12--------14--12--12--|
db|-------------------------------------------------------------------------|
Ab|-------------------------------------------------------------------------|
Db|-------------------------------------------------------------------------|

eb|-------------------------------------------------------------------------|
Bb|------------13--12-------------------------------------------------------|
Gb|-12--12--12--------14--12--12--12----------------------------------------|
db|-------------------------------------------------------------------------|
Ab|-------------------------------------------------------------------------|
Db|-------------------------------------------------------------------------|

Chorus: Play twice

eb|------------------------------------------------------------------------|
Bb|-------4-----------------4-----------7-------7-------7-------7-------7--|
Gb|-5--h7----7--5--5--5--h7----7---5--5----5--5----5--5----5--5----5--5----|
db|------------------------------------------------------------------------|
Ab|------------------------------------------------------------------------|
Db|------------------------------------------------------------------------|

eb|-------------------------------------------------------------------------|
Bb|-----------7------7-------7-------7-------7------------------------------|
Gb|-5--5--5-----5--5----5--5----5--5----5--5----5--5--5---------------------|
db|-------------------------------------------------------------------------|
Ab|-------------------------------------------------------------------------|
Db|-------------------------------------------------------------------------|

Solo: Play twice

eb|-15--10----14--10----15--10----------------------15--10----14--10--------|
Bb|-----------------------------------------12--15--------------------------|
Gb|--------12--------12--------12--12--h14-----------------12--------12-----|
db|-------------------------------------------------------------------------|
Ab|-------------------------------------------------------------------------|
Db|-------------------------------------------------------------------------|

eb|-15--10------------------------------------------------------------------|
Bb|----------------------12--15---------------------------------------------|
Gb|---------12--12--h14-----------------------------------------------------|
db|-------------------------------------------------------------------------|
Ab|-------------------------------------------------------------------------|
Db|-------------------------------------------------------------------------|

Outro: play 8 times

eb|-15--10------------------------------------------------------------------|
Bb|-------------------------------------------------------------------------|
Gb|---------12 End on this note---------------------------------------------|
db|-------------------------------------------------------------------------|
Ab|-------------------------------------------------------------------------|
Db|-------------------------------------------------------------------------|
Tap to rate this tab
# A B C D E F G H I J K L M N O P Q R S T U V W X Y Z