Song name
# A B C D E F G H I J K L M N O P Q R S T U V W X Y Z

Funeral For A Friend - Broken Foundations tab

FUNERAL FOR A FRIEND - BROKEN FOUNDATIONS 
STANDARD Eb TUNING - (Eb-Ab-Db-Gb-Bb-Eb)


^ *TAKE NOTE!!* ITS NOT IN DROP Db!! I KNOW THEY ALWAYS PLAY IN THAT BUT IN
  ALL HONESTY EVERY SINGLE SONG ON THIS ALBUM APART FROM WELCOME HOME 
  ARMAGEDDON SHOULD BE PLAYED IN STANDARD Eb, IVE JUST BEEN TABBING THEM
  IN DROP Db BECAUSE THATS WHAT THEY ALWAYS USED TO PLAY IN AND PEOPLE WOULD
  GET A GRUMP ON IF I DID OTHERWISE. HOWEVER YES, THERE IS ONLY ONE SONG
  ON THE ALBUM WHERE AN OPEN Db STRING IS EVEN USED, OTHERWISE ITS ALWAYS 
  THE SECOND FRET (Eb) SO JUST PLAY IN THAT. PLEASE. CHEERS. YEH.


Anyway, this was requested by jackryan15, so here it is. Full solo and 
everything. The solo isnt that fantastic, it's just bloody long, but have
fun playing it and it does use some interesting scale shapes, so yeah. 
cheers for looking!


legend: 

| b       bend 
| r       return 
| /       slide up 
| \       slide down 
| h       hammer on 
| p       pull off 
| *       pinch harmonic 
| ~       tremolo 
| ...     palm muted 
| x       muted note 
| (n)     optional note 
| tp      tremolo picked
| ==      sustain bend



>INTRO/VERSE<

|--------------------------------------------------------------|
|--------------------------------------------------------------|
|---------4--------------2-------------------------------------|
|-----5-2---5~-------2-5---5-4----------4---5----5/7-----------|
|-----------------------------------3-5---5---5--3/5-------5~--| x3
|-0-0----------0-0-0------------0-0------------------0-3-5-----|

|-------------------------------------------------------------------------------|
|-------------------------------------------------------------------------------|
|---------4--------------2------------------------------------------------------|
|-----5-2---5~-------2-5---5-4----------4---5----5-----4------------------------|
|-----------------------------------3-5---5---5--3-3-3-2-2-2-5-----4------------|
|-0-0----------0-0-0------------0-0--------------------------3-3-3-2-2-2-2-2-2--|


>VERSE PT.2<

|-----------------------------------------------------------------|
|-----------------------------------------------------------------|
|-----------------------------------4---------4h5hp4-----7h9p7----|
|-9-\7-9-------9-\7-9-------5---------------4--------7-5-------9--|
|-7-\5-7-------7-\5-7---5-7-----5-7-----5-7-----------------------|
|--------0-0-0--------0-------0-------0---------------------------|

|----------------------------------------------------------------|
|----------------------------------------------------------------|
|----------------------------------------------------------------|
|-9-\7-9-------9-\7-9--------------------------------------------|
|-7-\5-7-------7-\5-7-------5-7-------------------5-7------------|
|--------0-0-0--------0-0-5-----0-0-0-7/8\7-0-3-5-----0-0-7-8-0--|



>PRE-CHORUS<

|----------------------|
|-/12~-----10~---------|
|----------------11~---|
|----------------------|
|----------------------|
|----------------------|


>CHORUS<

|--------------------------------------|
|---------------------------------10---|
|------11---12---12p9---11---12--------|
|-9--9----9----9------9----9----9----9-|
|--------------------------------------| x3
|--------------------------------------|

|--------------------------------10h14p10-----|
|---------------------10h12---------------12--|
|------11---12---9h11-------11h12-------------|
|-9--9----9-----------------------------------|
|---------------------------------------------|
|---------------------------------------------|



>REPEAT INTRO/VERSE<
>REPEAT VERSE PT.2<
>REPEAT PRE-CHORUS<
>REPEAT CHORUS<


>SOLOOOO!<
 - it's pretty long and tedious so i've tabbed it in 2 bar sections as
   best i can. Or 4 bar depending on if you've doubled the tempo.

|---------------------------------------------------------------------------14b15~-14p12h14~--|
|-------------------------------------12-13-15--15b17~-r15p12-15b17~-r15p12-------------------|
|----------------------------11-12-14---------------------------------------------------------|
|-------------------10-12-14------------------------------------------------------------------|
|----------10-12-14---------------------------------------------------------------------------|
|-10-12-14------------------------------------------------------------------------------------|

|-/19-19-------17-17-------15-15---------------------------------------------------|
|--------15-15-------------------------15-15---------------------------------------|
|--------------------14-14-------12-12-------------14-14-------12-12---------------|
|--------------------------------------------12-12-------------------------12/14~--|
|--------------------------------------------------------12-12-------10-10---------|
|----------------------------------------------------------------------------------|

|----------------------------------------------------------------------------------
|----------------------------------------------------------------------------------
|-/12-11-----------------------------------------------------------------11h12h14--
|--------12-------------12--------------------10h12h14----------10h12h14-----------
|-----------14-12-10-12--------------10h12h14----------10h12h14--------------------
|---------------------------10h12h14-----------------------------------------------

-----------------------------12-14-15~--|
--------------------12h13h15------------|
-----------11h12h14---------------------|
--10h12h14------------------------------|
----------------------------------------|
----------------------------------------|

|-/19p15----------15h19p15----------15h19p15----------15h19p15----------------------------|
|--------17----17----------17----17----------17----17----------17----17-19b20~-19-17-19~--|
|-----------16----------------16----------------16----------------16----------------------|
|-----------------------------------------------------------------------------------------|
|-----------------------------------------------------------------------------------------|
|-----------------------------------------------------------------------------------------|

|-------------------------------------------------------------------15/19p15----------15~--|
|-------------12/15p12----------12-15/19p15-------------------12-15----------17----17------|
|----------12----------12----12-------------16-------------12-------------------16---------|
|-------14----------------14-------------------17-------14---------------------------------|
|-10-14------------------------------------------\10-14------------------------------------|
|------------------------------------------------------------------------------------------|

|-/15-15-------14-14--------------------------------------15-----------------|
|--------12-12-------12-12-15-15-------------------15b17======r15p12-15b17~--|
|--------------------------------12-12-14-14-12-12---------------------------|
|----------------------------------------------------------------------------|
|----------------------------------------------------------------------------|
|----------------------------------------------------------------------------|

|-/14-12-10-----------------------------------------------------------------------------------|
|-----------12--------------------------------------------------------------------------------|
|--------------11----------12-11-9------------------------------------------------------------|
|-----------------12-9-------------12-10-9------------------------------------------------14~-|
|----------------------10------------------12-10--14-12-10-----------------------15p14p12-----|
|----------------------------------------------------------14-12-10-8-7-15p14p12--------------|

|--------------------------------------------------------------------|
|----------------/15-13-12----13-12----------------------------------|
|--------------------------14-------14-12-14-12-11-12-11-------------|
|--------------------------------------------------------14-12-14~~~-|
|-/14~--10~-12~------------------------------------------------------|
|--------------------------------------------------------------------|


WOW. THAT WAS RLY FUN. 


>REPEAT CHORUS<
>REPEAT CHORUS<

THEN THE ENDING IS JUST THE FIRST TWO BARS OF THE INTRO/VERSE

CHEERS FOR LOOKING :)
Tap to rate this tab
# A B C D E F G H I J K L M N O P Q R S T U V W X Y Z