Song name
# A B C D E F G H I J K L M N O P Q R S T U V W X Y Z

Funeral For A Friend - Moments Forever Faded tab

Band: Funeral for a Friend
Song: Moments Forever Faded
Record: Casually Dressed & Deep In Conversation (2003)
Tabbed by: Joriel Vásquez
Date: 04/20/06

Tuning: Drop Db (Standard FfaF tuning)

Goddamn this is a killer song, too much feelin' and meanin', this song truelly reaches, 
passionate and easy to play.

Intro:
Guitar 1:
eb|-------|
Bb|-------|
Gb|-------|
Db|-12-12-| Several times, repeat as needed.
Ab|-12-12-|
Db|-12-12-|

 [Drum kicks in]

Guitar 2:
eb|--------------------|
Bb|--------------------|
Gb|--------------------|
Db|-9~------7~------5~-|
Ab|-9~------7~------5~-| (4x)
Db|-9~------7~------5~-|

Verse:
Guitar 1:
eb|----------|------------|---------------|
Bb|----------|------------|---------------|
Gb|-7--6-----|-7--6-------|----------6--7-|
Db|-------7~-|-------7----|-------7-------| (4x)
Ab|----------|----------9-|-7--9----------|
Db|----------|------------|---------------|
                  (3x)

Guitar 2:
eb|--------------------------------------------------------------------|
Bb|--------------------------------------------------------------------|
Gb|--------------------------------------------------------------------|
Db|-9~-----7-7--5--5--5-5-5--5--5--5-5-5--5--5--5-5-5--5--5--5-5-5/7-7-|(4x)
Ab|-9~-----7-7--5--5--5-5-5--5--5--5-5-5--5--5--5-5-5--5--5--5-5-5/7-7-|
Db|-9~-----7-7--5--5--5-5-5--5--5--5-5-5--5--5--5-5-5--5--5--5-5-5/7-7-|
                .  .  . .    .  .  . .    .  .  . .    .  .  . .

Chorus:
Guitar 1:
eb|--------------------------------------------------------------|
Bb|--------------------------------------------------------------|
Gb|-7-7-7-7-7-7-7-7-7-7-11-11-11-11-11-11-14-14-14-14-14-9-9-9-9-|
Db|-x-x-x-x-x-x-x-x-x-x--x--x--x--x--x--x--x--x--x--x--x-x-x-x-x-| (4x)
Ab|-5-5-5-5-5-5-5-5-5-5--9--9--9--9--9--9-12-12-12-12-12-7-7-7-7-|
Db|--------------------------------------------------------------|

Guitar 2: (2nd times mute the 11th fret)
eb|-------------------------------------------------------------|
Bb|-------------------------------------------------------------|
Gb|-------------------------------------------------------------|
Db|-5-5-5-5-5-5-5-5-5-5-9-9-9-9-9-9-9-9-12-12-12-12-11-11-11-11-|
Ab|-5-5-5-5-5-5-5-5-5-5-9-9-9-9-9-9-9-9-12-12-12-12-11-11-11-11-|
Db|-5-5-5-5-5-5-5-5-5-5-9-9-9-9-9-9-9-9-12-12-12-12-11-11-11-11-|
                                                                   (4x)
eb|------------------------------------------------------------|
Bb|------------------------------------------------------------|
Gb|------------------------------------------------------------|
Db|-5-5-5-5-5-5-5-5-5-5-9-9-9-9-9-9-9-9-12-12-12-12-11--11--11-|
Ab|-5-5-5-5-5-5-5-5-5-5-9-9-9-9-9-9-9-9-12-12-12-12-11--11--11-|
Db|-5-5-5-5-5-5-5-5-5-5-9-9-9-9-9-9-9-9-12-12-12-12-11--11--11-|
                                                     .   .   .

Verse

Chorus

Interlude:
eb|------------------------------------------------------------------------|
Bb|------------------------------------------------------------------------|
Gb|------------------------------------------------------------------------|
Db|-9-9--9-9--9-9--9-9--9-9--9-9--9-9--9-9--9-9--9-97-75-5-5--5-5--5-5-----|
Ab|-9-9--9-9--9-9--9-9--9-9--9-9--9-9--9-9--9-9--9-97-75-5-5--5-5--5-5-----|
Db|-9-9--9-9--9-9--9-9--9-9--9-9--9-9--9-9--9-9--9-97-75-5-5--5-5--5-5-----|

eb|----------------------------------------------------------------------|
Bb|----------------------------------------------------------------------|
Gb|----------------------------------------------------------------------|
Db|-5-5--5-5--5-5--5-5--5-5--5-5--5-5/7-7/9-9-9--9-9--9-9--9-9--9-9--9-9-|
Ab|-5-5--5-5--5-5--5-5--5-5--5-5--5-5/7-7/9-9-9--9-9--9-9--9-9--9-9--9-9-|
Db|-5-5--5-5--5-5--5-5--5-5--5-5--5-5/7-7/9-9-9--9-9--9-9--9-9--9-9--9-9-|


eb|------------------------------------------------------------------------|
Bb|------------------------------------------------------------------------|
Gb|------------------------------------------------------------------------|
Db|-9-9--9-9--9-9--9-97-75-5-5--5-5--5-5--5-5--5-5-xx5-5xx5-5xx5-5xx5-5----|
Ab|-9-9--9-9--9-9--9-97-75-5-5--5-5--5-5--5-5--5-5-xx5-5xx5-5xx5-5xx5-5----|
Db|-9-9--9-9--9-9--9-97-75-5-5--5-5--5-5--5-5--5-5-xx5-5xx5-5xx5-5xx5-5----|

eb|----------|
Bb|----------|
Gb|----------|
Db|xx5/7-7/9-|
Ab|xx5/7-7/9-|
Db|xx5/7-7/9-|

Then it keeps going, I'm sure u got the idea, won't tab the whole thing.

Outro:
Guitar 1:
eb|--------------------------------------------------------------|
Bb|--------------------------------------------------------------|
Gb|-7-7-7-7-7-7-7-7-9-9-9-9-9-9-9-14-14-14-14-14-14-14-9-9-9-9-9-|
Db|-x-x-x-x-x-x-x-x-x-x-x-x-x-x-x--x--x--x--x--x--x--x-x-x-x-x-x-|
Ab|-5-5-5-5-5-5-5-5-7-7-7-7-7-7-7-12-12-12-12-12-12-12-7-7-7-7-7-|
Db|--------------------------------------------------------------|

Guitar 2:
eb|------------------------------------------------------------------------|
Bb|------------------------------------------------------------------------|
Gb|------------------------------------------------------------------------|
Db|-5-5-5-5-5-5-5-5-7-7-7-7-7-7-7-7-9-9-9-9-9-9-9-9-9-12-12-12-12-11-11-11-|
Ab|-5-5-5-5-5-5-5-5-7-7-7-7-7-7-7-7-9-9-9-9-9-9-9-9-9-12-12-12-12-11-11-11-|
Db|-5-5-5-5-5-5-5-5-7-7-7-7-7-7-7-7-9-9-9-9-9-9-9-9-9-12-12-12-12-11-11-11-|

eb|----|
Bb|----|
Gb|----|
Db|-5~-|
Ab|-5~-|
Db|-5~-|

Piano Fill:
eb|-------------------------------|
Bb|------14---15--14-------14-----|
Gb|-14-----------------14------14-|
Db|-------------------------------|
Ab|-------------------------------|
Db|-------------------------------|

                                 *End*
Tap to rate this tab
 
# A B C D E F G H I J K L M N O P Q R S T U V W X Y Z