Guitaretab - guitar tabs
Song name
# A B C D E F G H I J K L M N O P Q R S T U V W X Y Z

Funeral For A Friend - Novella tab

Band: Funeral For A Friend
Song: Novella
tabbed by: funeralforafrie

Great Song...by the best band in the world..work out timing etc
for yourselves because im too damn lazy.

Intro (Both Guitars)

Eb|------------------|
Bb|------------------|
Gb|------------------|
Db|-44-0--44-0--44-0-|
Ab|-44-0--44-0--44-0-|
Db|-44-0--44-0--44-0-|

Verse
Eb|--------------------------------------------------------|
Bb|--------------------------------------------------------|
Gb|----------------77-9999---------------------------------|
Db|-44-0-44-0-44-0-xx-xxxx-44-0-44-0-44-0------------------|
Ab|-44-0-44-0-44-0-55-7777-44-0-44-0-44-0------------------|
Db|-44-0-44-0-44-0---------44-0-44-0-44-0-00-000-00-000-00-|
                                      .................

Chorus ...work out strumming for yourself!
Eb|-----------------|
Bb|-----------------|
Gb|-----------------|
Db|-5-0-9-4-5-9-5-9-|
Ab|-5-0-9-4-5-9-5-9-|
Db|-5-0-9-4-5-9-5-9-|



Interlude

Eb|--------------------------------------|
Bb|----------------------------------5---|
Gb|-6-6-4-4--6-6-4-4--6-6-4-4--6-6-4--4--|
Db|----7-7-7----7-7-7----7-7-7----7-7--7-|
Ab|--------------------------------------|
Db|--------------------------------------|
[ Tab from: http://www.guitaretab.com/f/funeral-for-a-friend/47183.html ]
Eb|-5-4-5----5-4-5-----5-4------5-4-7----|
Bb|-------------------5---5----5---5-----|
Gb|--------------------------------------|
Db|--------------------------------------|
Ab|--------------------------------------|
Db|--------------------------------------|

After the "Your days were golden" bit.


guitar 1
Eb|--------|--------------------------------------------------------------|
Bb|--------|--------------------------------------------------------------|
Gb|-66-7-6-|------------77-99-11-11-14-14----77-99-1111-6-7-6-------------|
Db|-xx-x-x-|-4444444----xx-xx-x--x--x--x-----xx-xx-x-x--x-x-x-------------|
Ab|-44-5-4-|-4444444----55-77-9--9--12-12----55-77-9-9--4-5-4-------------|
Db|--------|-4444444------------------------------------------------------|

guitar 2
Eb|--------|---------------------------------------------------------------|
Bb|--------|---------------------------------------------------------------|
Gb|--------|-6-4-6------77-99-11-11-14-14----77-99-1111-6-7-6--------------|
Db|--------|-x-x-x------xx-xx-x--x--x--x-----xx-xx-x-x--x-x-x--------------|
Ab|--------|-4-2-4------55-77-9--9--12-12----55-77-9-9--4-5-4--------------|
Db|--------|---------------------------------------------------------------|


Lyrics:

Wasting time, it's over and ended
Wasting time, we deserve
Hold that line, they ask us in safety
Hold that line, when we talk 
I can see the headlights and pavements
My legs can't carry me that far,
If this distance isn't enough they'll cry
Another river to see you drown

Faceless lies, it's easy to speak when
Every word is your own
Selfish eyes look onward in protest as we
Tear down their disguise

Your days were golden while
We bled.........
Related for Novella tab
Novella chords by Funeral For A Friend