Song name
# A B C D E F G H I J K L M N O P Q R S T U V W X Y Z

Funeral For A Friend - 10 Scene Points To The Winner tab

10 scene points to the winner
funeral for a friend

awesome song by an awesome band

any problems tell me

and please comment

i think the tempo is 100

this is played really fast
d# ------------------------------------------|
a# ------------------------------------------|
f# ------------------------------------------|
c# ------------------------------------------|
g# -----10-12-10-8-----10-12-10-8-----10-7---|
c# -0-0------------0-0------------0-0--------|

                                                 both x3
d# -------------------------------------------|
a# -------------------------------------------|
f# -------------------------------------------|
c# -------------------------------------------|
g# -----10-12-10-8-----1----------------------|
c# -0-0------------0-0---12--10---------------|

d# ------------------------------------------------------------|
a# ------------------------------------------------------------|  then play
f# ------------------------------------------------------------|
c# ------------------------------------------------------------|
g# -----10-12-10-8-----10-12-10-12-10-12-10-12-10-10-12-10-12--|
c# -0-0------------0-0-----------------------------------------|


then this riff

d# -----------------------------------------------|
a# -----------------------------------------------|
f# -----------------------------------------------|
c# ------7----5----------------5--7----8----7-----|
g# -----------------------------------------------|
c# -0-00---00-----0-0-00-00-0--------0----0-------|


d# ------------------------------------------------|
a# ------------------------------------------------|
f# ------------------------------------------------|
c# ------5----7-----8----55---7--5-----3----7------|
g# ------------------------------------------------|
c# -8-88---88-----8----88---8--------8----8--------|


this is the chorus


guitar 1 does this

d# -----------------------------------------------|
a# -----------------------------------------------|
f# -----------------------------------------------|
c# -----------------------------------------------|
g# -----5---3---3-5---5-3---3-5---3---------------|
c# -0-0---0---0-----0-----0-----0-----------------|


d# ------------------------------------------------|
a# ------------------------------------------------|
f# ------------------------------------------------|
c# ------------------------------------------------|
g# ---7-8---8-7---7---7-8---8-7---7----------------|
c# -8-----8-----8---8-----8-----8------------------|


while guitar 2 does this

d# ------------------------------------------------|
a# ------------------------------------------------|
f# ------------------------------------------------|
c# ------------------------------------------------|
g# -00000000000000000000000000000000000000000000---|
c# -00000000000000000000000000000000000000000000-


d# -----------------------------------------------|
a# -----------------------------------------------|
f# -----------------------------------------------|
c# -----------------------------------------------|
g# -88888888888888888888888888888888888888888888
c# -88888888888888888888888888888888888888888888

and then both guitars do

d# -----------------------------------------------|
a# -----------------------------------------------|
f# -----------------------------------------------|
c# -----------------------------------------------|
g# -10-10-10-10-10-10-10-10-10-10-10-10-10--------|
c# -10-10-10-10-10-10-10-10-10-10-10-10-10--------|

then the quick riff

-----------------------------------------------|
-----------------------------------------------|
-----------------------------------------------|
-----------------------------------------------|
5-5-5-5-12-12-12-12-13-13-13-13-10-10-10-10----|
-----------------------------------------------|

-----------------------------------------------|
-----------------------------------------------|
-----------------------------------------------|
-----------------------------------------------|
12-12-12-12-10-10-10-10-8-8-8-8-7-7-7-7--------|
-----------------------------------------------|
Tap to rate this tab
# A B C D E F G H I J K L M N O P Q R S T U V W X Y Z