Guitaretab - guitar tabs
Song name
# A B C D E F G H I J K L M N O P Q R S T U V W X Y Z

Funeral For A Friend - You Want Romance tab

Artist:    Funeral for a Friend
Song:      You Want Romance?
Album:     Escape Artists Never Die (Single)
Tabbed by: Jaemes Hunt

This is a song on the single of Escape Artists Never Die by Funeral for a Friend.  The
song is half a step down from drop D   I have tabbed it as accurately as I could but
may be some mistakes as always.  I have split the tabs into two sections, the first 
Darren Smith, the rhythm guitar and the second being Kris Roberts, the lead guitar.  Thanks
have fun!

----------------------------------------------------------------------------
Rhythm Guitar: Darren Smith
----------------------------------------------------------------------------

Intro:

eb |-------------------------------------------------------------------|
Bb |-------------------------------------------------------------------|
Gb |---------14--13-11-13---------------------------------------------|
Db |-44444----x---x---x--x-7777--2222----------------------------------|
Ab |-44444---12--11---9-11-7777--2222----------------------------------|
Db |-44444-----------------7777--2222----------------------------------| X4

Bridge:

eb |-------------------------------------------------------------------|
Bb |-------------------------------------------------------------------|
Gb |-77777-66666-99999-11-11-9999--------------------------------------|
Db |-77777-77777-99999-9-9--9999--------------------------------------|
Ab |-55555-55555-77777-7-7--7777--------------------------------------|
Db |-------------------------------------------------------------------| X2
  ..... ..... ..... .  .  ....

Chorus:

eb |-------------------------------------------------------------------|
Bb |---------------4h5p0-----------------------------------------------|
Gb |-------------------------------------------------------------------|
Db |-4444-7-6-47-0-------2222------------------------------------------|
Ab |-4444-7-6-47-0-------2222------------------------------------------|
Db |-44447-6-47-0-------2222------------------------------------------| X4

End of Chorus:

eb |-------------------------------------------------------------------|
Bb |-------------------------------------------------------------------|
Gb |-------------------------------------------------------------------|
Db |-0000000-2222222---------------------------------------------------|
Ab |-0000000-2222222---------------------------------------------------|
Db |-0000000-2222222---------------------------------------------------|


(Intro again)
(Bridge again)
(Chorus again)
(End of Chorus again)

Breakdown:

eb |-------------------------------------------------------------------|
Bb |------------------------------------------------------------------|
Gb |-------------------------------------------------------------------|
Db |-----6--------7----9h11--------------------------------------------|
Ab |-------7--------9--------------------------------------------------|
Db |-0000----0000----00------------------------------------------------| X4
     ....    ....    ..

eb |-------------------------------------------------------------------|
Bb |-------------------------------------------------------------------|
Gb |-------------------------------------------------------------------|
Db |-00000000-00000000-------------------------------------------------|
Ab |-00000000-00000000-------------------------------------------------|
Db |-00000000-00000000-------------------------------------------------| X4
  ........ ........

Outro:

eb |-------------------------------------------------------------------|
Bb |-------------------------------------------------------------------|
Gb |-------------------14--13--14--13--13-14---------------------------|
Db |-7777777--4444444---x--x----x---x---x--x---------------------------|
Ab |-7777777--4444444--12--11--12--11--11-12---------------------------|
Db |-7777777--4444444--000000000000000000000---------------------------| X4
                    .....................
Break:

eb |-------------------------------------------------------------------|
Bb |------------------------------------------------------------------|
Gb |-14---16---18---16---14---16---------------------------------------|
Db |--x----x----x----x----x----x---------------------------------------|
Ab |-12---14---16---14---12---14---------------------------------------|
Db |-------------------------------------------------------------------|


Outro Continued:
[ Tab from: http://www.guitaretab.com/f/funeral-for-a-friend/53023.html ]
eb |-------------------------------------------------------------------|
Bb |-------------------------------------------------------------------|
Gb |-14--13--14--13--13-14-----14--13--14--13--13-12-------------------|
Db |--x---x---x---x---x--x------x---x---x---x---x--x-------------------|
Ab |-12--11--12--11--11-12-----12--11--12--11--11-12-------------------|
Db |-000000000000000000000-----000000000000000000000-------------------| X2
  .....................     .....................

Ender:

eb |--10--12--14--12--10-12----10--12--14--12--10-12-10----------------|
Bb |---x---x---x---x---x--x-----x---x---x---x---x--x--x----------------|
Gb |---7---9--11---9---7--9-----7---9--11---9---7--9--7----------------|
Db |---0---0---0---0---0--0-----0---0---0---0---0--0--0----------------|
Ab |---0---0---0---0---0--0-----0---0---0---0---0--0--0----------------|
Db |---0---0---0---0---0--0-----0---0---0---0---0--0--0----------------| X2

----------------------------------------------------------------------------
Lead Guitar: Kris Roberts
----------------------------------------------------------------------------

Intro:

eb |-5p4p04h55p4p0-4h5555555-7777-55555-444444----------------------|
Bb |-------h5--------h5-----------------------------------------------|
Gb |-------------------------------------------------------------------|
Db |-------------------------------------------------------------------|
Ab |-------------------------------------------------------------------|
Db |-------------------------------------------------------------------|

eb |-5p4p0-4h5-5p4p0-4h5-4h55h7-5p4-4h5------------------------------|
Bb |-------h5--------h5-----------------------------------------------|
Gb |-------------------------------------------------------------------|
Db |-------------------------------------------------------------------|
Ab |-------------------------------------------------------------------|
Db |-------------------------------------------------------------------|


(Bridge same as rhythm)

Chorus:

eb |-555555555--7--5--4h5----0---4h5p4---4h5-5------------------------|
Bb |-555555555-5--5--5-5----5-------h5-------5------------------------|
Gb |-------------------------------------------------------------------|
Db |-------------------------------------------------------------------|
Ab |-------------------------------------------------------------------|
Db |-------------------------------------------------------------------| X4

End of Chorus:

eb |-55555555555-77777777777-------------------------------------------|
Bb |-55555555555-55555555555------------------------------------------|
Gb |-------------------------------------------------------------------|
Db |-------------------------------------------------------------------|
Ab |-------------------------------------------------------------------|
Db |-------------------------------------------------------------------|

(Intro again)
(Bridge again)
(Chorus again)
(End of Chorus again)

Breakdown:

eb |-------------------------------------------------------------------|
Bb |------------------------------------------------------------------|
Gb |-------------------------------------------------------------------|
Db |-----6--------7----9h11--------------------------------------------|
Ab |-------7--------9--------------------------------------------------|
Db |-0000----0000----00------------------------------------------------| X8
     ....    ....    ..

Outro:

eb |-555555-777777-5555555---5---7---9---7---5-7-----------------------|
Bb |-555555555555-5555555---------------------------------------------|
Gb |-------------------------------------------------------------------|
Db |-------------------------------------------------------------------|
Ab |-------------------------------------------------------------------|
Db |-------------------------------------------------------------------| X4


Break:

eb |-5---7---9---7---5-7-----------------------------------------------|
Bb |------------------------------------------------------------------|
Gb |-------------------------------------------------------------------|
Db |-------------------------------------------------------------------|
Ab |-------------------------------------------------------------------|
Db |-------------------------------------------------------------------|


Outro Continued and Ender:

eb |-------------------------------------------------------------------|
Bb |------------------------------------------------------------------|
Gb |-14---16---18---16---14---16---------------------------------------|
Db |--x----x----x----x----x----x-----------4---------------------------|
Ab |-12---14---16---14---12---14-----------4---------------------------|
Db |---------------------------------------4---------------------------| X4
Related for You Want Romance tab