Song name
# A B C D E F G H I J K L M N O P Q R S T U V W X Y Z

Funeral For A Friend - Recovery tab

Help us improve GuitareTab! Take a short survey!
Hi

Ive Looked At Some Other Tabs For This And They Sound A Bit Off.
Hopefully This Is 100%

Please Rate And Comment

Tuning: Db Ab Db Gb Bb Eb (Both Guitars)

Hammer = h
Pull Off = p
Palm Mute = .

||============||
||Kris Roberts||
||============||

INTRO
=====
-----------------------------------------------------------------------------|
------------------------------------10-9-------------------------------------|
------------------11--13-----------------9-----------------------------------|
--11------11--9-11--11--11--9-9-11---------9h11p9-9-9-7---7-6-7-7/11----9-11-|
--9--9-12---9---------------7-7-9--9--9-9---------7-7-5--5-5-5-5----5-5-7-9--|
-----------------------------------------------------------------------------|

---------------------------------------------------------------|
---------------------------------------------------------------|
------------11-13-13-13-13-11-11-------------------------------| X
--11--7-6-7--x--x--x--x--x--x--x-------------------------------| 2
--9--5-5-5---9-11-11-11-11--9--9-------------------------------|
---------------------------------------------------------------|

Verse
=====
-----------------------------------------------------------------------------|
------------------------------------10-9-------------------------------------|
------------------11--13-----------------9-----------------------------------|
--11------11--9-11--11--11--9-9-11---------9h11p9-9-9-7---7-6-7-7/11----9-11-|
--9--9-12---9---------------7-7-9--9--9-9---------7-7-5--5-5-5-5----5-5-7-9--|
-----------------------------------------------------------------------------|

---------------------------------------------------------------|
---------------------------------------------------------------|
------------11-13-13-13-13-11-11-------------------------------| X
--11--7-6-7--x--x--x--x--x--x--x-------------------------------| 2
--9--5-5-5---9-11-11-11-11--9--9-------------------------------|
---------------------------------------------------------------|

Chorus
======
---------12----9h10p9------------------------------------------|
------10----10--------10---------------------------------------|
----9--------------------9-------------------------------------| x
--9------------------------11--9--7----------------------------| 2
---------------------------------------------------------------|
---------------------------------------------------------------|

-----------------------------------------------------------------------------|
------------------------------------10-9-------------------------------------|
------------------11--13-----------------9-----------------------------------|
--11------11--9-11--11--11--9-9-11---------9h11p9-9-9-7---7-6-7-7/11----9-11-|
--9--9-12---9---------------7-7-9--9--9-9---------7-7-5--5-5-5-5----5-5-7-9--|
-----------------------------------------------------------------------------|

---------------------------------------------------------------|
---------------------------------------------------------------|
------------11-13-13-13-13-11-11-------------------------------| X
--11--7-6-7--x--x--x--x--x--x--x-------------------------------| 2
--9--5-5-5---9-11-11-11-11--9--9-------------------------------|
---------------------------------------------------------------|

---------12----9h10p9------------------------------------------|
------10----10--------10---------------------------------------|
----9--------------------9-------------------------------------| x
--9------------------------11--9--7----------------------------| 2
---------------------------------------------------------------|
---------------------------------------------------------------|

---------------------------------------------------------------|
---------------------------------------------------------------|
--7--9--11-13---13-13--14-14-14-14-----------------------------|
--x--x--x--x----x--x---x--x--x--x------------------------------|
--5--7--9--11---11-11--12-12-12-12-----------------------------|
---------------------------------------------------------------|

---------------------------------------------------------------|
---------------------------------------------------------------|
--9--11--13--14---14-14--14-14-14-14---------------------------|
--x--x---x---x----x--x---x--x--x--x----------------------------|
--7--9---11--12---12-12--12-12-12-12---------------------------|
---------------------------------------------------------------|

---------------------------------------------------------------|
---------------------------------------------------------------|
--7--9--11-13---13-13--14-14-14-14-----------------------------|
--x--x--x--x----x--x---x--x--x--x------------------------------|
--5--7--9--11---11-11--12-12-12-12-----------------------------|
---------------------------------------------------------------|

---------------------------------------------------------------|
---------------------------------------------------------------|
--11-13--14--16---16-16--18-18-18-18---------------------------|
--x--x---x---x----x--x---x--x--x--x----------------------------|
--9--11--12--14---14-14--16-16-16-16---------------------------|
---------------------------------------------------------------|

Interlude
=========
---------------------|--------------------|--------------------|
-----12--14--15--17--|--------------------|--------------------|
--14-----------------|-----------------TWO-BARS----------------|
---------------------|-------------------REST------------------|
---------------------|--------------------|--------------------|
---------------------|--------------------|--------------------|

--------------------17-----------------------------------------|
-----12--14--15--17----17--15--14--12--------------------------|
--14-----------------------------------------------------------|
---------------------------------------------------------------|
---------------------------------------------------------------|
---------------------------------------------------------------|

---------------------|--------------------|--------------------|
-----12--14--15--17--|--------------------|--------------------|
--14-----------------|-----------------TWO-BARS----------------|
---------------------|-------------------REST------------------|
---------------------|--------------------|--------------------|
---------------------|--------------------|--------------------|

--------------------17-----------------------------------------|
-----12--14--15--17----17--15--14--12--------------------------|
--14-----------------------------------14----------------------|
---------------------------------------------------------------|
---------------------------------------------------------------|
---------------------------------------------------------------|

---------------------|--------------------|--------------------|
---------------------|--------------------|--------------------|
---------------------|-----THREE BARS-----|--------------------|
---------------------|--------REST--------|--------------------|
---------------------|--------------------|--------------------|
---------------------|--------------------|--------------------|

Breakdown
=========
--------------------------------------------4p0----------------|
-------7-------------------------------------------------------|
---6----6-------PROMISE-------------------6--------------------| x
--4-7-4--7-4------ME!---------7------4-6-7-7-------------------| 8
---------------------------4-5-5-4-4---------------------------|
--------------------------5-------5-5--------------------------|

---------------------|-----------------------------------------|
-------7-------------|-----------------------------------------|
---6----6------------|-----------------ONE BAR-----------------|
--4-7-4--7-4---------|-------------------REST------------------|
---------------------|-----------------------------------------|
---------------------|-----------------------------------------|

Interude
========
---------------------|--------------------|--------------------|
-----12--14--15--17--|--------------------|--------------------|
--14-----------------|-----------------TWO-BARS----------------|
---------------------|-------------------REST------------------|
---------------------|--------------------|--------------------|
---------------------|--------------------|--------------------|

--------------------17-----------------------------------------|
-----12--14--15--17----17--15--14--12--------------------------|
--14-----------------------------------------------------------| x
---------------------------------------------------------------| 2
---------------------------------------------------------------|
---------------------------------------------------------------|

Outro
=====
|-----------------------------------------------------------------|
|-----------------------------------------------------------------|
|-----------------------------------------------------------------|
|------------00-0------------00-0------------00-0------------00-4-|
|--0-0-0-0-0-00-0--0-0-0-0-0-00-0--0-0-0-0-0-00-0--0-0-0-0-0-00-4-|
|--0-0-0-0-0-00-0--0-0-0-0-0-00-0--0-0-0-0-0-00-0--0-0-0-0-0-00-4-|
   . . . . .       . . . . .       . . . . .       . . . . .


||============||
||Darren Smith||
||============||

Intro
=====

-------------------------------------------------------------|
-------------------------------------------------------------|
-------------------------------------------------------------|
--4-----------------------2---4-----------------------2---0--|
--4--4-4-4-4-4-4-4-4-4-4--2-2-4--4-4-4-4-4-4-4-4-4-4--2-2-0--|
--4--4-4-4-4-4-4-4-4-4-4--2-2-4--4-4-4-4-4-4-4-4-4-4--2-2-0--|
     . . . . . . . . . .         . . . . . . . . . .

-------------------------------------------------------------|
-------------------------------------------------------------|
-------------------------------------------------------------|
-------------------------0---0---------------------------0---|
----0-0-0-0-0-0-0-0-0-0--0-0-0--0-0-0-0-0-0-0-0-0-0-0-0--0-0-|
----0-0-0-0-0-0-0-0-0-0--0-0-0--0-0-0-0-0-0-0-0-0-0-0-0--0-0-|
    . . . . . . . . . .         . . . . . . . . . . . .

Verse
=====
------------------------------------------------------------------|
------------------------------------------------------------------|
----ONE BAR------ONE BAR------ONE BAR------ONE BAR----------------|
--4--REST--2---4--REST--2---0--REST--0---0--REST------------------|
--4--------2-2-4--------2-2-0--------0-0-0--------0-0-0-0-0-0-0-0-|
--4--------2-2-4--------2-2-0--------0-0-0--------0-0-0-0-0-0-0-0-|


-------------------------------------------------------------|
-------------------------------------------------------------|
-------------------------------------------------------------|
--4-----------------------2---4-----------------------2---0--|
--4--4-4-4-4-4-4-4-4-4-4--2-2-4--4-4-4-4-4-4-4-4-4-4--2-2-0--|
--4--4-4-4-4-4-4-4-4-4-4--2-2-4--4-4-4-4-4-4-4-4-4-4--2-2-0--|
     . . . . . . . . . .         . . . . . . . . . .

-------------------------------------------------------------|
-------------------------------------------------------------|
-------------------------------------------------------------|
-------------------------0---0---------------------------0---|
----0-0-0-0-0-0-0-0-0-0--0-0-0--0-0-0-0-0-0-0-0-0-0-0-0--0-0-|
----0-0-0-0-0-0-0-0-0-0--0-0-0--0-0-0-0-0-0-0-0-0-0-0-0--0-0-|
    . . . . . . . . . .         . . . . . . . . . . . .

Chorus
======
-------------------------------------------------------------|
-------------------------------------------------------------|
-------------------------------------------------------------| x
--9--9--9-9--9-9--9--9-9-9--9--9--9-9--9-9--9-9-9-9----------| 2
--9--9--9-9--9-9--9--9-9-9--7--7--7-7--7-7--7-7-7-7----------|
--7--7--7-7--7-7--7--7-7-7--9--9--9-9--9-9--9-9-9-9----------|

-------------------------------------------------------------|
-------------------------------------------------------------|
-------------------------------------------------------------| x
--7--7--7-7--7-7--7-7-7-7--9--9--9-9--9-9--9-9-9-9-----------| 2
--7--7--7-7--7-7--7-7-7-7--9--9--9-9--9-9--9-9-9-9-----------|
--5--5--5-5--5-5--5-5-5-5--7--7--7-7--7-7--7-7-7-7-----------|

Interlude
=========
----------------------------------------------------------------|
----------------------------------------------------------------|
--------------5--5-5--7-7-7-------------------------------------| x
--4--4--4--x--5--5-5--7-7-7--2--2-2--2-2-2-2--2-2--2---2h4------| 3
--4--4--4--x--7--7-7--5-5-5--2--2-2--2-2-2-2--2-2----------2-2--|
--4--4--4--x--0--0-0--0-0-0--2--2-2--2-2-2-2--2-2----2-----2-2--|

----------------------------------------------------------------|
----------------------------------------------------------------|
--------------5--5-5--7-7-7-------------------------------------|
--4--4--4--x--5--5-5--7-7-7--2--2-2--2-2-2-2--2-2-2-2-4-4-4-4-0-|
--4--4--4--x--7--7-7--5-5-5--2--2-2--2-2-2-2--2-2-2-2-4-4-4-4-0-|
--4--4--4--x--0--0-0--0-0-0--2--2-2--2-2-2-2--2-2-2-2-4-4-4-4-0-|

---------------------|--------------------|--------------------|
---------------------|--------------------|--------------------|
---------------------|-----THREE BARS-----|--------------------|
---------------------|--------REST--------|--------------------|
---------------------|--------------------|--------------------|
---------------------|--------------------|--------------------|

Breakdown
=========
--------12---------------------12-----------12---------|
-----10----10---PROMISE-----10----10-----10----10------|
--11---------11---ME-----11-----------11---------------| x
-------------------------------------------------------| 4
-------------------------------------------------------|
-------------------------------------------------------|

--------12-----------12-----------12-----------12------|
-----10----10-----10----10-----10----10-----10----10---|
--11-----------11-----------11-----------11------------| x
-------------------------------------------------------| 4
-------------------------------------------------------|
-------------------------------------------------------|

--------12------|--------------------------------------|
-----10----10---|--------------------------------------|
--11---------11-|-----------ONE BAR--------------------|
----------------|------------REST----------------------|
----------------|--------------------------------------|
----------------|--------------------------------------|

Interlude
=========
----------------------------------------------------------------|
----------------------------------------------------------------|
--------------5--5-5--7-7-7-------------------------------------| x
--4--4--4--x--5--5-5--7-7-7--2--2-2--2-2-2-2--2-2--2---2h4------| 4
--4--4--4--x--7--7-7--5-5-5--2--2-2--2-2-2-2--2-2----------2-2--|
--4--4--4--x--0--0-0--0-0-0--2--2-2--2-2-2-2--2-2----2-----2-2--|

Outro
=====
|-----------------------------------------------------------------|
|-----------------------------------------------------------------|
|-----------------------------------------------------------------|
|------------00-0------------00-0------------00-0------------00-4-|
|--0-0-0-0-0-00-0--0-0-0-0-0-00-0--0-0-0-0-0-00-0--0-0-0-0-0-00-4-|
|--0-0-0-0-0-00-0--0-0-0-0-0-00-0--0-0-0-0-0-00-0--0-0-0-0-0-00-4-|
   . . . . .       . . . . .       . . . . .       . . . . .
Related for Recovery tab