Song name
# A B C D E F G H I J K L M N O P Q R S T U V W X Y Z

Funeral For A Friend - Alvarez tab

Song: Alvarez (solo)
Band: Funeral for a friend
Tabber: Liam O'Sullivan (buddy_bomber@hotmail.com)
Tuning: Eb Bb Gb Db Ab Db

sorry if this isnt 100% perfect but this is my first tab :D


Kris Roberts
Eb-----------------------------------------------------------------|
Bb-----------------------------------------------------------------|
Gb--------------------------------------------6h7p6----------------|
Db--15~-15~-15-13-12-8~-15-13-12-8~--8-10-12-----------------------|
Ab-----------------------------------------------------------------|
Db-----------------------------------------------------------------|

from the 8-10-12 part repeat it 3 times, because it does it twice alone and once with 
Davies singing.

Darren Smith
Eb-----------------------------------------------------------------|
Bb-----------------------------------------------------------------|
Gb--4~--6~--8h9p8-4~--4~--6~--8h9p8-4~-----------------------------|
Db---------------------------------------5-5-5-5-5--2-2-2-2-2------|repeat
Ab---------------------------------------5-5-5-5-5--2-2-2-2-2------|until end
Db---------------------------------------5-5-5-5-5--2-2-2-2-2------|of solo

and that is my tab, i think its about 90% right but any comments would be welcome!
Tap to rate this tab
# A B C D E F G H I J K L M N O P Q R S T U V W X Y Z