Song name
# A B C D E F G H I J K L M N O P Q R S T U V W X Y Z

Funeral For A Friend - Lazarus In The Wilderness tab

ARTIST: Funeral For A Friend
TITLE:  Lazarus (In The Wilderness)
TABBER:	Luke Charman (emoluke@gmail.com)
ALBUM:  Streetcar (CD Single)

---

This is just the intro for both guitars, some guy emailed me and requested I do it, so I did. Have fun!
Comments are welcomed. emoluke@gmail.com

---

Kris:

eb|-------------------------------------|
Bb|-------------------------------------|
Gb|-------------------------------------|
Db|-9-9---------7---------5---4---7-7/9-|
Ab|-7-7-7-7-7-7---9-5---5---5---5-5-5/7-|
Db|-------------------9-----------------|
        . . . .       .     .   .

eb|---------------------------------|
Bb|---------------------------------|
Gb|---------------------------------|
Db|---------7---------5-------7-7/9-|
Ab|-7-7-7-7---9-5-------9-5---5-5/7-|
Db|---------------9-9-------9-------|
    . . . .       . . 


eb|-------------------------------|
Bb|-------------------------------|
Gb|-------------------------------|
Db|-9-9---------7---------5---4---|
Ab|-7-7-7-7-7-7---9-5---5---5---5-|
Db|-------------------9-----------|
        . . . .       .     .   .

eb|------------------------------|
Bb|------------------------------|
Gb|------------------------------|
Db|----4---4---4---4---4---------|
Ab|-3----3---3-------------5-5/7-|
Db|--------------5---5---5-5-5/7-|
         .   .   .   .   .
Tap to rate this tab
# A B C D E F G H I J K L M N O P Q R S T U V W X Y Z