Guitaretab - guitar tabs
Song name
# A B C D E F G H I J K L M N O P Q R S T U V W X Y Z

Funeral For A Friend - Miracle Of Christmas tab

----------------------------------------------------------------------------
		 MIRACLE OF CHRISTMAS - Funeral For A Friend
----------------------------------------------------------------------------
Tabbed by: Andy Wareing
Email: nookie747@hotmail.com

INTRO
Guitar 1 Only

Eb|-------------------------------------------|
Bb|-----------------------5---55---5----5--#7-|
Gb|-----7---77---7---77-----7----7---77-------|
Db|-------------------------------------------|  x1   (# = harmonic)
Ab|---5---5----5---5----5---------------------|
Db|-------------------------------------------|

Eb|-------------------------------------------|
Bb|-----------------------5---55---5----5-----|
Gb|-----7---77---7---77-----7----7---77---7---|
Db|-------------------------------------------|  x1
Ab|---5---5----5---5----5---------------------|
Db|-------------------------------------------|

VERSE
Guitar 1

Eb|-------------------------------------------|
Bb|-----------------------5---55---5----5-----|
Gb|-----7---77---7---77-----7----7---77---7---|
Db|-------------------------------------------|  x4
Ab|---5---5----5---5----5---------------------|
Db|-------------------------------------------|

Guitar 2

Eb|-------------------------------------------|
Bb|-------------------------------------------|
Gb|-------------------------------------------|
Db|---55555555555555550000000000000000--------|  x4   (* = palm muted)
Ab|---55555555555555550000000000000000--------|
Db|---55555555555555550000000000000000--------|
      ********************************

CHORUS
Guitar 1

Eb|---------------------------------------------|
Bb|---------------------------------------------|
Gb|-----7p6-----6--7--6------7p6-----6--9--7----|
Db|----7----7--7-7--7--7----7----7--7-7--7--7---|  x4 (p = pull off)
Ab|---5-------5-----------5-------5-------------|
Db|---------------------------------------------|

Guitar 2
[ Tab from: http://www.guitaretab.com/f/funeral-for-a-friend/67010.html ]
Eb|-------------------------------------------|
Bb|-------------------------------------------|
Gb|-------------------------------------------|
Db|---55555555555555552222222222222222--------|  x4
Ab|---55555555555555552222222222222222--------|
Db|---55555555555555552222222222222222--------|

VERSE

CHORUS

BRIDGE 1
Guitar 1

Eb|-----19-19-19-14-14-14--------19-19-19-14-14-14--------|
Bb|-----------------------15-15--------------------15-15--|
Gb|-------------------------------------------------------|
Db|-------------------------------------------------------|
Ab|-------------------------------------------------------|
Db|-------------------------------------------------------|

Eb|-----17-17-17-14-14-14--------17-17-17-14-14-14--------|
Bb|-----------------------15-15--------------------15-15--|
Gb|-------------------------------------------------------|
Db|-------------------------------------------------------|  x3
Ab|-------------------------------------------------------|
Db|-------------------------------------------------------|

Eb|-----19-19-19-14-14-14--------19-19-19-14-14-14--------|
Bb|-----------------------15-15--------------------15-15--|
Gb|-------------------------------------------------------|
Db|-------------------------------------------------------|  x1
Ab|-------------------------------------------------------|
Db|-------------------------------------------------------|

Guitar 2

Eb|-------------------------------------------|
Bb|-------------------------------------------|
Gb|-------------------------------------------|
Db|---99999999999999999777777777777777777-----|  x3
Ab|---99999999999999999777777777777777777-----|
Db|---99999999999999999777777777777777777-----|

Eb|---------------------------|
Bb|---------------------------|
Gb|---------------------------|
Db|---999999999999999997~-----|  x1
Ab|---999999999999999997~-----|
Db|---999999999999999997~-----|

BRIDGE 2
Guitar 1 Only

Eb|---------------------------------------------|
Bb|---------------------------------------------|
Gb|-----7p6-----6--7--6------7p6-----6--9--7----|
Db|----7----7--7-7--7--7----7----7--7-7--7--7---|   x1
Ab|---5-------5-----------5-------5-------------|
Db|---------------------------------------------|

CHORUS TO FADE


Awesome new release from "Taste of Christmas" compilation.
Any errors please email me.
============================================================================
Related for Miracle Of Christmas tab
Advertisement will be closed in 10 seconds