Song name
# A B C D E F G H I J K L M N O P Q R S T U V W X Y Z

Funeral Suits - Colour Fade tab

-------------------------------------------------------------------------------
                             Colour Fade - Funeral Suits
-------------------------------------------------------------------------------
Tabbed by:Hagi3171
E-mail:

Tuning: Standard

Main Riff:
*frat each note* and repeat this until the next part

e|---------------------------|
B|---------7-10/14---6-7-----|
G|---------------------------|
D|---------------------------|
A|---------------------------|
E|---------------------------|

0:56 - Second Riff
I have tried 2 versions of this one, the first is more "natural" sound
and the second is more of the "metal" sound. Repeat until next one

1 vesrion:
e|---------------------------------------|
B|--------7-7-7-----6-6-6----------------|
G|--------------6-6-------2-2------------|
D|---------------------------------------|
A|---------------------------------------|
E|---------------------------------------|

2 version:
e|---------------------------------------|
B|-------7-7-7-----6-6-6-----------------|
G|-------------6-6-----------------------|
D|-----------------------7-7-------------|
A|---------------------------------------|
E|---------------------------------------|


2:13 - Bridge

e|---------------------------------------|
B|------7--14\9\7--7--14/18-7------------|
G|---------------------------------------|
D|---------------------------------------|
A|---------------------------------------|
E|---------------------------------------|

After that repeat the second riff to the end.




************************************

| /   slide up
| \   slide down
| h   hammer-on
| p   pull-off
| ~   vibrato
| +   harmonic
| x   Mute note
| b   Bend
| pb  Pre-bend
| br  Bend release
| pbr Pre-bend release
| brb Bend release bend

************************************
Tap to rate this tab
 
# A B C D E F G H I J K L M N O P Q R S T U V W X Y Z