Song name
# A B C D E F G H I J K L M N O P Q R S T U V W X Y Z

Funerary Bell - Guardian Of My Infernal Path tab

-------------------------------------------------------------------------------
                Guardian of my Infernal Path - Funerary Bell
-------------------------------------------------------------------------------
Tabbed by: Luis Gonzalez
E-mail:

Tuning: E - Satandard

Note: Everything is tremolo picking

Riff 1: 4x                                                         
e|------------|-------------|-----------------|----------------|
B|------------|-------------|-----------------|----------------|
G|------------|-------------|-----------------|----------------|
D|-----9--7--9|--10--9--7--9|------444-555-444|-----222-444-222|
A|--7--7--7--7|--7---7--7--7|--555------------|-333------------|
E|--0---------|-------------|-----------------|----------------|

Riff 2: 4x                                                            
e|------------|-------------|-----------------|----------------|
B|--8---------|-------------|--8--------------|----------------|
G|--9---------|-------------|--9--------------|----------------|
D|--9---------|--10----9----|--9--------------|--10-----12--14-|
A|--7---------|--12----12---|--7--------------|--12-----12--12-|
E|------------|-------------|-----------------|----------------|

Repeat Riffs 1 and 2

Riff 3: fast 4x
e|----------------------------|---------------------------------|
B|----------------------------|---------------------------------|
G|--5--7--4--5--2--4--3---4--5|--5--7--5--5--2--5--2--0---------|
D|--7--7--5--5--3--5--2---5--5|--7--7--4--5--3--4--3--2---------|
A|----------------------------|---------------------------------|
E|----------------------------|---------------------------------|

Riff 4: slow 4x
e|-------------|---------------------|
B|-------------|---------------------|
G|-------------|---------------------|
D|--7--6--10--9|--7--9-7-6--10-9--12-|
A|--7--7--8---8|--7--7-7-7--8--8--8--|
E|-------------|---------------------|

Repeat Riffs 3 and 1


************************************

| /   slide up
| \   slide down
| h   hammer-on
| p   pull-off
| ~   vibrato
| +   harmonic
| x   Mute note
| b   Bend
| pb  Pre-bend
| br  Bend release
| pbr Pre-bend release
| brb Bend release bend

************************************
Tap to rate this tab
# A B C D E F G H I J K L M N O P Q R S T U V W X Y Z