Song name
# A B C D E F G H I J K L M N O P Q R S T U V W X Y Z

Funk 49 - The James Gang tab

От: for www.ultimate-guitar.com 
Кому: 
Тема: New Tabs
Дата: 13 июля 2000 г. 4:03

Funk #49  The James gang.
 Tabbed by Andrew Graham.
  
Funk #49

The James Gang



Fig. 1

:------------------------------:

:-5h6--7--5h6--7h8--7--7--5h6--:

:-5h6--7--5h6--7----7--7--5h6--:

:-5h6--7--5h6--7h9--7--7--5h6--:

:------------------------------:

:------------------------------:



Fig. 2

:-------------------:-------------------(0)-:

:-------------------:-------------------(8)-:

:-------------------:-------------------(7)-:

:-7-5-----------(7)-:-9-7-----------(9)-(6)-:

:-----7-5-3-----(7)-:-----9-7-5-----(9)-(7)-:

:-----------3-5-(5)-:-----------5-7-(7)-(0)-:



Intro

:---------------------------------:

:----8----------------------------:

:-7b---7br-5--9-8-7-7------7b-----:

:---------------------------------:

:---------------------------------:

:                                 :

:---------------------5-----------:

:----------------------5----------:

:-----------------------6---------:

:------------------------7--------:

:-------------------------7-------:

:--------------------------5------:

:---------------------------------:



Solo

:----------------------------------:

:--------------15------------------:

:-------5b--------15b-15b-13---7-5-:

:-7-x-x----5-----------------x-7-5-:

:-7-x-x----------------------x-7-5-:

:-5-x-x----------------------x-----: 
:: Ultimate Guitar Archive :: 
http://www.ultimate-guitar.com 

Tap to rate this tab
# A B C D E F G H I J K L M N O P Q R S T U V W X Y Z