Song name
# A B C D E F G H I J K L M N O P Q R S T U V W X Y Z

Funk Abilities - Salt Water tab

     Am
|---------0-----------------|
|-1----------1--0-----------|
|-----2---------------------|     2x
|---------------------------|
|-0-------------------------|
|---------------------------|



|---------0----------------0------------|
|-3---------3--0----0-------3--1--0-----|
|-----2---------------------------------|
|---------------------2-----------------|   1x
|-0-------------------------------------|
|---------------------------------------|
have fun...enjoy the song and if you want to have that song you can send me an 
e-mail(robinscholten@gmx.net) or you can add me on icq(icq# :296-688-363).

http://www.funkabilities.nl/
Tap to rate this tab
# A B C D E F G H I J K L M N O P Q R S T U V W X Y Z